Song name
# A B C D E F G H I J K L M N O P Q R S T U V W X Y Z

Queen - Too Much Love Will Kill You tab

Hey guys, this is my first time on this site, but I'm pretty sure that it's  right. Enjoy!

Standard tunning: EADGBe

3:05

|----------------------------------17--15---15-14----14-15--17s19---------|
|-------------------------------------------------17--------------17--17~~|
|--15s16~--16--14---12-14s16~---------------------------------------------|
|-------------------------------------------------------------------------|
|-------------------------------------------------------------------------|
|-------------------------------------------------------------------------|


|--19^(20)--19--17--15h17h19------------------------------------------|
|----------------------------------15---------------------------------|
|------------------------------16------17--16--14-12------------------|
|----------------------------------------------------14-12----12-14~--|
|----------------------------------------------------------14---------|
|---------------------------------------------------------------------|


|-----------------------------------------22^(25)-22^(25)-22^(25)-22^(25)-|
|-----------------------------17--15--------------------------------------|
|-------12--14--14s16--14-------------------------------------------------|
|--14---------------------------------------------------------------------|
|-------------------------------------------------------------------------|
|-------------------------------------------------------------------------|


|-22^(25)-22^(25)-22^(25)-22^(25)--------|
|----------------------------------------|
|----------------------------------------|
|----------------------------------------|
|----------------------------------------|
|----------------------------------------|


3:55

|----------------------------------------|
|--19^(20)-------------------------------|
|----------------------------------------|
|----------------------------------------|
|----------------------------------------|
|----------------------------------------|

Great song!

For any comments or corrections or any kind of virus please send to okafkafi@gmail.com.

Oh, and would you be a dear and rate? I think 5 stars would be enough, thanks :)

Kanfano.
Tap to rate this tab
 
# A B C D E F G H I J K L M N O P Q R S T U V W X Y Z