Song name
# A B C D E F G H I J K L M N O P Q R S T U V W X Y Z

Queen - Scandal tab

Scandal
Queen
Miracle

|-14b15----14--12-----12------------------------------------------------|
|------------------15-------------------7-7------------8-8-8-7b8_r7-7---|
|------------------------14b16_r14---b9-----7b9__r-7--------------------|
|-----------------------------------------------------------------------|
|-----------------------------------------------------------------------|
|-----------------------------------------------------------------------|

|-----------------------------10--------------------|
|-8p7p5--------------8-10b_12---12_r10p8-10b12-10v--|
|-------7-7b9---77----------------------------------|
|---------------------------------------------------|
|---------------------------------------------------|
|---------------------------------------------------|

                                              ____
-------------12------151312------------------14--------171514----------19b20---
---------13------13--------151312--------15----15--1517------1715--------------
-7\/---12--12--12----------------1412--14--14----14--------------171614--------
-----14------------------------------16----------------------------------------
-------------------------------------------------------------------------------
-------------------------------------------------------------------------------

|-19b20r1917--19----------|
|-----------20--20b22vv---|
|-------------------------|
|-------------------------|
|-------------------------|
|-------------------------|
Tap to rate this tab
# A B C D E F G H I J K L M N O P Q R S T U V W X Y Z