Song name
# A B C D E F G H I J K L M N O P Q R S T U V W X Y Z

Queen - Dont Stop Me Now tab

-------------------------------------------------------------------------------
			     Don't Stop Me Now - Solo - Queen
-------------------------------------------------------------------------------
Tabbed by: Ben Marshall
Email: ben_619@hotmail.co.uk

Tuning: Standard

This is my first tab, rate and let me know what to change :)

                                           (bend 3x)
e|---------------------------------------------------------------------------|
B|-----------------------------11-10-----------------------------------------|
G|12b12r10-12b12r10-12-10-9-10-------12-10--12b-(b)-(b)-----15b15r14 15b15r14|
D|------------------------------------------------------10-------------------|
A|---------------------------------------------------------------------------|
E|---------------------------------------------------------------------------|

e|---------------------------------------------------------------------------|
B|---------------------------------------------------------------------------|
G|15-14-12-14---15-14-12-10-12b-(b)-(b)-(b)-10--------------10h12p10---------|
D|----------------------------------------------7-5-3-5-5b----------12-------|
A|---------------------------------------------------------------------------|
E|---------------------------------------------------------------------------|

e|---------------------------------------------------------------------------|
B|----------------------17b17b17b17b17b17b17b~~~-----------------------------|
G|10h12p10---10h12p10--------------------------------------------------------|
D|--------12---------12------------------------------------------------------|
A|---------------------------------------------------------------------------|
E|---------------------------------------------------------------------------|

e|20b20b20b20b20b20b20b~~----------------------------------------------------|
B|20b20b20b20b20b20b20b~~----------------------------------------------------|
G|---------------------------------------------------------------------------|
D|---------------------------------------------------------------------------|
A|---------------------------------------------------------------------------|
E|---------------------------------------------------------------------------|




************************************

| h   hammer-on
| p   pull-off
| ~   vibrato
| b   bend
| r   release

************************************
Tap to rate this tab
 
# A B C D E F G H I J K L M N O P Q R S T U V W X Y Z