Song name
# A B C D E F G H I J K L M N O P Q R S T U V W X Y Z

Queen - Youre So Square Baby I Dont Care tab

you're so square baby i dont care


queen


album: live at wembley '86 vol. 2


TRANSCRIBED BY RUDY GUZMAN


guzman_84@hotmail.com


e:----------------------------------------------------|
B:----------------------------------------------------|
G:----------------------------------------------------|
D:----------------------------------------------------|x9
A:-6-7-7-7-7-7-7--6--7-7-7-7-7-7-7--6--7-7-7-7-7-7-7--|
E:-0-0-0-0-0-0-0--0--0-0-0-0-0-0-0--0--0-0-0-0-0-0-0--|

verse
e:-0-0-0--0-0--0-0-0-0-0-0-0--0-0-0--0-0--0-0-0-0-0-0-0--0-0-0--------0-0-0--------0-0-0-0-|
B:-0-0-0--2-2--0-0-0-0-0-0-0--0-0-0--2-2--0-0-0-0-0-0-0--0-0-0--2-2-2-0-0-0-2-2-2--0-0-0-0-|
G:-1-1-1--2-2--1-1-1-1-1-1-1--1-1-1--2-2--1-1-1-1-1-1-1--1-1-1--2-2-2-1-1-1-2-2-2--1-1-1-1-|
D:-2-2-2--2-2--2-2-2-2-2-2-2--2-2-2--2-2--2-2-2-2-2-2-2--2-2-2--2-2-2-2-2-2-2-2-2--2-2-2-2-|
A:-2-2-2--0-0--2-2-2-2-2-2-2--2-2-2--0-0--2-2-2-2-2-2-2--2-2-2--0-0-0-2-2-2-0-0-0--2-2-2-2-|
E:-0-0-0-------0-0-0-0-0-0-0--0-0-0-------0-0-0-0-0-0-0--0-0-0--------0-0-0--------0-0-0-0-|


e:-0-0-0-0-0---------------------|
B:-0-0-0-0-0--2-2-2-2-2-2-2-2--4-|
G:-1-1-1-1-1--2-2-2-2-2-2-2-2--4-|
D:-2-2-2-2-2--2-2-2-2-2-2-2-2--4-|
A:-2-2-2-2-2--0-0-0-0-0-0-0-0--2-|
E:-0-0-0-0-0---------------------|


e:----------------------------------------------------|
B:----------------------------------------------------|
G:----------------------------------------------------|
D:----------------------------------------------------|x2
A:-6-7-7-7-7-7-7--6--7-7-7-7-7-7-7--6--7-7-7-7-7-7-7--|
E:-0-0-0-0-0-0-0--0--0-0-0-0-0-0-0--0--0-0-0-0-0-0-0--|

verse
e:-0-0-0--0-0--0-0-0-0-0-0-0--0-0-0--0-0--0-0-0-0-0-0-0--0-0-0--------0-0-0--------0-0-0-0-|
B:-0-0-0--2-2--0-0-0-0-0-0-0--0-0-0--2-2--0-0-0-0-0-0-0--0-0-0--2-2-2-0-0-0-2-2-2--0-0-0-0-|
G:-1-1-1--2-2--1-1-1-1-1-1-1--1-1-1--2-2--1-1-1-1-1-1-1--1-1-1--2-2-2-1-1-1-2-2-2--1-1-1-1-|
D:-2-2-2--2-2--2-2-2-2-2-2-2--2-2-2--2-2--2-2-2-2-2-2-2--2-2-2--2-2-2-2-2-2-2-2-2--2-2-2-2-|
A:-2-2-2--0-0--2-2-2-2-2-2-2--2-2-2--0-0--2-2-2-2-2-2-2--2-2-2--0-0-0-2-2-2-0-0-0--2-2-2-2-|
E:-0-0-0-------0-0-0-0-0-0-0--0-0-0-------0-0-0-0-0-0-0--0-0-0--------0-0-0--------0-0-0-0-|


e:-0-0-0-0-0---------------------|
B:-0-0-0-0-0--2-2-2-2-2-2-2-2--4-|
G:-1-1-1-1-1--2-2-2-2-2-2-2-2--4-|
D:-2-2-2-2-2--2-2-2-2-2-2-2-2--4-|
A:-2-2-2-2-2--0-0-0-0-0-0-0-0--2-|
E:-0-0-0-0-0---------------------|

e:----------------------------------------------------|
B:----------------------------------------------------|
G:----------------------------------------------------|
D:----------------------------------------------------|x2
A:-6-7-7-7-7-7-7--6--7-7-7-7-7-7-7--6--7-7-7-7-7-7-7--|
E:-0-0-0-0-0-0-0--0--0-0-0-0-0-0-0--0--0-0-0-0-0-0-0--|

:-------------|
:-7-7-7-7-7-7-|
:-7-7-7-7-7-7-|
:-6-6-6-6-6-6-|
:-7-7-7-7-7-7-|
:-------------|

e:------------------------------0-0-0-0-0-0-0-0-0-0-0-0-0-|
B:-2-2-2-2-2-2-2-2-2-2-2-2-2-2--0-0-0-0-0-0-0-0-0-0-0-0-0-|
G:-2-2-2-2-2-2-2-2-2-2-2-2-2-2--1-1-1-1-1-1-1-1-1-1-1-1-1-|
D:-2-2-2-2-2-2-2-2-2-2-2-2-2-2--2-2-2-2-2-2-2-2-2-2-2-2-2-|
A:-0-0-0-0-0-0-0-0-0-0-0-0-0-0--2-2-2-2-2-2-2-2-2-2-2-2-2-|
E:------------------------------0-0-0-0-0-0-0-0-0-0-0-0-0-|


e:------------------------------|
B:-2-2-2-2-2-2-2-2-2-2-2-2-2-2--|
G:-2-2-2-2-2-2-2-2-2-2-2-2-2-2--|
D:-2-2-2-2-2-2-2-2-2-2-2-2-2-2--|
A:-0-0-0-0-0-0-0-0-0-0-0-0-0-0--|
E:------------------------------|

e:------------------------------|
B:-2-2-2-2-2-2-2-2-2-2-2-2-2-2--|
G:-0-0-0-0-0-0-0-0-0-0-0-0-0-0--|
D:-2-2-2-2-2-2-2-2-2-2-2-2-2-2--|
A:-0-0-0-0-0-0-0-0-0-0-0-0-0-0--|
E:------------------------------|

:-------------------|
:-7-7-7-7-7-7-7-7-7-|
:-7-7-7-7-7-7-7-7-7-|
:-6-6-6-6-6-6-6-6-6-|
:-7-7-7-7-7-7-7-7-7-|
:-------------------|

verse
e:-0-0-0--0-0--0-0-0-0-0-0-0--0-0-0--0-0--0-0-0-0-0-0-0--0-0-0--------0-0-0--------0-0-0-0-|
B:-0-0-0--2-2--0-0-0-0-0-0-0--0-0-0--2-2--0-0-0-0-0-0-0--0-0-0--2-2-2-0-0-0-2-2-2--0-0-0-0-|
G:-1-1-1--2-2--1-1-1-1-1-1-1--1-1-1--2-2--1-1-1-1-1-1-1--1-1-1--2-2-2-1-1-1-2-2-2--1-1-1-1-|
D:-2-2-2--2-2--2-2-2-2-2-2-2--2-2-2--2-2--2-2-2-2-2-2-2--2-2-2--2-2-2-2-2-2-2-2-2--2-2-2-2-|
A:-2-2-2--0-0--2-2-2-2-2-2-2--2-2-2--0-0--2-2-2-2-2-2-2--2-2-2--0-0-0-2-2-2-0-0-0--2-2-2-2-|
E:-0-0-0-------0-0-0-0-0-0-0--0-0-0-------0-0-0-0-0-0-0--0-0-0--------0-0-0--------0-0-0-0-|


e:-0-0-0-0-0---------------------|
B:-0-0-0-0-0--2-2-2-2-2-2-2-2--4-|
G:-1-1-1-1-1--2-2-2-2-2-2-2-2--4-|
D:-2-2-2-2-2--2-2-2-2-2-2-2-2--4-|
A:-2-2-2-2-2--0-0-0-0-0-0-0-0--2-|
E:-0-0-0-0-0---------------------|

e:----------------------------------------------------|
B:----------------------------------------------------|
G:----------------------------------------------------|
D:----------------------------------------------------|x6
A:-6-7-7-7-7-7-7--6--7-7-7-7-7-7-7--6--7-7-7-7-7-7-7--|
E:-0-0-0-0-0-0-0--0--0-0-0-0-0-0-0--0--0-0-0-0-0-0-0--|
Tap to rate this tab
# A B C D E F G H I J K L M N O P Q R S T U V W X Y Z