Song name
# A B C D E F G H I J K L M N O P Q R S T U V W X Y Z

Queen - Killer Queen tab

Killer Queen By Queen

Gtr I   (E A D G B E) - 'Piano'
Gtr II  (E A D G B E) - 'Gtr. I'
Gtr III (E A D G B E) - 'Gtr.II'
Gtr IV  (E A D G B E) - 'Gtr.V'

  Gtr I
|------------|-----------------|------------------|
|------------|--8---8---8---8--|-9---9--9--9------|
|------------|--8---8---8---8--|-7---7--7--7------|
|------------|-10--10--10--10--|------------------|
|------------|-----------------|-------------10-8-|
|------------|-----------------|------------------|


|-----------------|-----------------|
|--8---8---8---8--|-9--9---8---8----|
|--8---8---8---8--|-7--7---8---8----|
|-10--10--10--10--|-------10--10----|
|-----------------|-----------------|
|--8--------------|-----------------|


|--6----6---6----6--|--6----6-----------|---------------|-6---6---6----------|
|--8----8---8----8--|--8----8---4----4--|-4------4------|-6---6---6----------|
|--8----8---7----7--|--6----6---5----5--|-4------3------|-8---8---7----------|
|--8----8---8----8--|--8----8---6----6--|-6------6------|-8---8---8----------|
|-------------------|-------------------|---------------|--------------------|
|-------------------|-------------------|---------------|--------------------|
|
| Gtr II
|-------------------|-------------------|---------------|--------------------|
|-------------------|-------------------|---------------|--------------------|
|-------------------|-------------------|---------------|--------------------|
|-13---13s=12---12s=|=11---11s=10---10s=|=9---9s=8---8--|-8---8s5-8----------|
|-------------------|-------------------|---------------|--------------------|
|-------------------|-------------------|---------------|--------------------|


|-----------------|-------------|--------------||-------5--5--|
|--8---8---8---8--|-6--6--8--8--|-7--7--6--3-1-||-6--6--6--6--|
|-10--10---8---8--|-7--7--8--8--|-5--5--7--3-2-||-7--7--7--7--|
|--9---9--10--10--|-8--8--8--8--|-7--7--8--5-3-||-8--8--7--7--|
|-10--10--10--10--|-8--8--6--6--|-5--5--8--5-3-||-8--8--5--5--|
|----------8---8--|-6--6--------|-------6--3-1-||-6--6--------|


|-------5--5--|----------5--|-------------|---6-(6)----|
|-3--3--6--6--|-3--3--5--6--|----------5--|---6-(6)----|
|-3--3--7--7--|-3--3--6--7--|----------5--|---7-(7)----|
|-5--5--7--7--|-5--5--7--7--|-5-----9--5--|---8-(8)----|
|-5--5--5--5--|-5--5--7--5--|-5--7--9--3--|------------|
|-3--3--------|-3--3--5-----|-3--5--7-----|------------|


     
|-------------5---|-----------------|---6-(6)----|
|----5--------6---|----3--------5---|-5-6-(6)----|
|----6--------7---|----3--------5---|-5-7-(7)----|
|----7--------7---|----5--------5---|-5-8-(8)----|
|----7-----5--5---|----5-----3--3---|-3----------|
|-5--5---5--------|-3--3---3--------|------------|


|----------------|-----------------------------------|
|-----1--3---4-4-|-(4)---6----3----4-----------------|
|-----2--3---3-3-|-(3)--------3----3-----------------|
|-----3--3---5-5-|-(5)-3---3--3----5-----------------|
|----------------|-----------------------------------|
|----------------|-----------------------------------|
|
| Gtr II
|----------------|-----------------------------------|
|-----------/8-8-|-(8)-------/8----8-----------------|
|-----------/8-8-|-(8)-------/8----8-----------------|
|----------------|-----------------------------------|
|----------------|-----------------------------------|
|----------------|-----------------------------------|
|
| Gtr III
|----------------|-----------------------------------|
|----------------|-----------18p15----18-18b20-(18)--|
|----------------|-----------------------------------|
|----------------|-----------------------------------|
|----------------|-----------------------------------|
|-1----------1-1-|-(1)-------------------------------|


|-------------------|-----------------||
|-------1---3---4-4-|-(4)---6---3--4--||
|-------2---3---3-3-|-(3)-------3--3--||
|-------3---3---5-5-|-(5)-3---3-3--5--||
|-------------------|-----------------||
|---1---------------|-----------------||
|
|
|-------------------|-----------------||
|--(8)---------/8-8-|-(8)-------------||
|--(8)---------/8-8-|-(8)-------------||
|-------------------|-----------------||
|-------------------|-----------------||
|-------------------|-----------------||
|
|
|-------------------|-----------------||
|-(18)--------------|-----------------||
|-------------------|-----------------||
|-------------------|-----------------||
|-------------------|-----------------||
|-------------------|-----------------||


|-----------------|------------------|
|--8---8---8---8--|-9---9--9--9------|
|--8---8---8---8--|-7---7--7--7------|
|-10--10--10--10--|------------------|
|-----------------|-------------10-8-|
|-----------------|------------------|
|
| Gtr II
|-----------------|------------------|
|-----------------|------------------|
|-----------------|------------------|
|-----------------|------------------|
|-----------------|------------------|
|-----------------|------------------|


|-----------------|--------------------------|
|--8---8---8---8--|--9---9---8----------8----|
|--8---8---8---8--|--7---7---8----------8----|
|-10--10--10--10--|---------10---------10----|
|-----------------|--------------------------|
|--8--------------|--------------------------|
|
|
|-----------------|--------------------------|
|-----------------|--------------------------|
|-----------------|---------10b12-8-10----8--|
|-----------------|--------------------10----|
|-----------------|--------------------------|
|--8--------------|-(8)----------------------|


|--6-----6---6----6--|--6----6-----------|---------------|-6---6---6----------|
|--8-----8---8----8--|--8----8---4----4--|-4------4------|-6---6---6----------|
|--8-----8---7----7--|--6----6---5----5--|-4------3------|-8---8---7----------|
|--8-----8---8----8--|--8----8---6----6--|-6------6------|-8---8---8----------|
|--------------------|-------------------|---------------|--------------------|
|--------------------|-------------------|---------------|--------------------|
|
|--------------------|-------------------|---------------|--------------------|
|--------------------|-------------------|---------------|--------------------|
|-(8)----------------|-------------------|---------------|--------------------|
|--------------------|-------------------|---------------|--------------------|
|--------------------|-------------------|---------------|--------------------|
|--------------------|-------------------|---------------|--------------------|
|
|
| Gtr III
|--------------------|-------------------|---------------|--------------------|
|--------------------|-------------------|---------------|--------------------|
|--------------------|-------------------|---------------|--------------------|
|-13----13s=12---12s=|=11---11s=10---10s=|=9---9s=8---8--|-8---8s5-8----------|
|--------------------|-------------------|---------------|--------------------|
|--------------------|-------------------|---------------|--------------------|


|-----------------|-------------|--------------|
|--8---8---8---8--|-6--6--8--8--|-7--7--6--3-1-|
|-10--10---8---8--|-7--7--8--8--|-5--5--7--3-2-|
|--9---9--10--10--|-8--8--8--8--|-7--7--8--5-3-|
|-10--10--10--10--|-8--8--6--6--|-5--5--8--5-3-|
|----------8---8--|-6--6--------|-------6--3-1-|


                             Guitar Solo

  Gtr II
|--------------------------||--------------------------------|
|--------------------------||--------------------------------|
|------------12b14====(12)-||-12-12r-----12---10s9-----------|
|--------------------------||----------------------12-(12)---|
|--------------------------||--------------------------------|
|--------------------------||--------------------------------|
|
|
| Gtr I
|---6-(6)------------------||---------------------------5----|
|---6-(6)------------------||--------5------------------6----|
|---7-(7)------------------||--------6------------------7----|
|---8-(8)------------------||--------7------------------7----|
|--------------------------||--------7---------5--------5----|
|--------------------------||--5-----5------5----------------|


|--------------------------------|--------------------------------------|
|-10-11------10------------------|------------------8-------------------|
|-------12--------10s9-----------|-10pb12r(10)-10-------8s7-------------|
|----------------------12-(12)---|--------------------------10-(10)-----|
|--------------------------------|--------------------------------------|
|--------------------------------|--------------------------------------|
|
|
|---------------------------5----|--------------------------------------|
|--------5------------------6----|--------------3----------------8------|
|--------6------------------7----|--------------3----------------8------|
|--------7------------------7----|--------------5---------------10------|
|--------7---------5--------5----|--------------5-------3-------10------|
|--5-----5------5----------------|--3-----------3-----3----------8------|


  Gtr II
|--------------------------|------------------------|
|-8------------------------|------------------------|
|---8-10-7-8p7-------------|------------------------|
|--------------10\---2s3-3-|-(3)--------------3-2s3-|
|--------------------------|------------------------|
|--------------------------|------------------------|
|
| Gtr III
|--------------------------|------------------------|
|--------------------------|------/8-7s8-(8)--------|
|--------------------------|------/8-7s8-(8)--------|
|--------------------------|------------------------|
|--------------------------|------------------------|
|--------------------------|------------------------|
|
| Gtr I
|--------------------------|------------------------|
|--------3------8----------|------------------------|
|--------3------8----------|------------------------|
|--------5-----10----------|------------------------|
|--------5-----10----------|------------------------|
|-3------3---3--8------1-1-|-(1)--------------1---1-|


|-------------------------|--------------------------|
|-------------------------|--------------------------|
|-------------------------|--------------------------|
|-(3)---------------3-2s3-|-(3)----------------------|
|-------------------------|--------------------------|
|-------------------------|--------------------------|
|
|
|-------------------------|--------------------------|
|-(8)---/8-7s8-(8)--------|--8----9---10-/13-(13)----|
|-(8)---/8-7s8-(8)--------|--------------/10-(10)h===|
|-------------------------|--8----9---10-------------|
|-------------------------|--------------------------|
|-------------------------|--------------------------|
|
|
|-------------------------|--------------------------|
|-------------------------|--------------------------|
|-------------------------|--------------------------|
|-------------------------|--------------------------|
|-------------------------|--------------------------|
|-(1)---------------1---1-|-(1)----------------------|


|--------------------------------------|-----------------------------------|
|--------------------------------------|--18--18p15-16p15------------------|
|--15pb17--15b17r15-15pb17r15----------|------------------17--17-----------|
|-----------------------------17-(17)--|------------------------------17---|
|--------------------------------------|-----------------------------------|
|--------------------------------------|-----------------------------------|
|
|
|--------------------------------------|-----------------------------------|
|-(13)---------------------------------|-(13)------------------------------|
|--12----------------------------------|-(12)------------------------------|
|--------------------------------------|-----------------------------------|
|--------------------------------------|-----------------------------------|
|--------------------------------------|-----------------------------------|
|
|
|--------------------------------------|-----------------------------------|
|---8-------8--------8-------------8---|---9------9--------9---9-----------|
|---8-------8--------8-------------8---|---7------7--------7---7-----------|
|--10------10-------10------------10---|-----------------------------------|
|--------------------------------------|---------------------------10----8-|
|--------------------------------------|-----------------------------------|


|------------------------------------|------------------------------------|
|------------------------------------|-15-15p12-13p12-15p13-16p15-18p16---|
|-17--17s16-15pb17r(15)-12-(12)-(12)-|------------------------------------|
|------------------------------------|------------------------------------|
|------------------------------------|------------------------------------|
|------------------------------------|------------------------------------|
|
|
|------------------------------------|------------------------------------|
|------------------------------------|------------------------------------|
|------------------------------------|------------------------------------|
|------------------------------------|------------------------------------|
|------------------------------------|------------------------------------|
|------------------------------------|------------------------------------|
|
|
|------------------------------------|------------------------------------|
|--8---8-----8---------------8-------|--9-----9--------8--------8---------|
|--8---8-----8---------------8-------|--7-----7--------8--------8---------|
|-10--10----10--------------10-------|----------------10-------10---------|
|------------------------------------|------------------------------------|
|--8---------------------------------|------------------------------------|



|-------------------------------------|------------15-------------------------|
|-18b20==(18)----------(18)r(18)------|--16-----18----16-------18pb20r(18)p16-|
|-------------------------------------|---------------------------------------|
|-------------------------------------|---------------------------------------|
|-------------------------------------|---------------------------------------|
|-------------------------------------|---------------------------------------|
|
|
|-------------------------------------|---------------------------------------|
|-------------16-------------15-------|------14-------16---13-----------------|
|-------------------15-(15)--------15-|-(15)-------15s17---13-----------------|
|-------------------------------------|---------------------------------------|
|-------------------------------------|---------------------------------------|
|-------------------------------------|---------------------------------------|
|
|
|----------6------6------6-------6----|---6------6----------------------------|
|----------8------8------8-------8----|---8------8-----4----------------4-----|
|----------8------8------7-------7----|---6------6-----5----------------5-----|
|----------8------8------8-------8----|---8------8-----6----------------6-----|
|-------------------------------------|---------------------------------------|
|-------------------------------------|---------------------------------------|


|-----------------------|-------------------------------------------------|
|-----18-------------16-|-18b20==(18)---18-------18r(18)--------18b20=====|
|-16-------16s15--17----|-------------------------------------------------|
|-----------------------|-------------------------------------------------|
|-----------------------|-------------------------------------------------|
|-----------------------|-------------------------------------------------|
|
|
|-----------------------|-------------------------------------------------|
|-----14----------------|-15b16--(15)---15b16====15r(15)--------15b16-----|
|-13--13---13s12--13-15-|-15-----(15)---15-------15-(15)--------14b15-----|
|-13-------13-13--13-17-|-------------------------------------------------|
|-----------------------|-------------------------------------------------|
|-----------------------|-------------------------------------------------|
|
|
|-----------------------|----------6-----6------------6-------------------|
|--4-----------4--------|----------6-----6------------6-------------------|
|--4-----------3--------|----------8-----8------------7-------------------|
|--6-----------6--------|----------8-----8------------8-------------------|
|-----------------------|-------------------------------------------------|
|-----------------------|-------------------------------------------------|


|------18-----------------------|----------------------||
|-(18)----18---18---18b21==(18)-|-(18)----(18)---(18)r-||
|-------------------------------|----------------------||
|-------------------------------|----------------------||
|-------------------------------|----------------------||
|-------------------------------|----------------------||
|
|
|------15-----------------------|----------------------||
|-(15)-16-15---15---15-----(15)-|-(15)----(15)---(15)--||
|-(14)----14---14---17b19==(17)-|-(17)----(17)---(17)r-||
|-------------------------------|----------------------||
|-------------------------------|----------------------||
|-------------------------------|----------------------||
|
|
|---6------6----6----6----------|----------------------||
|---6------6----6----6----------|--10------------------||
|---6------6----6----6----------|---7------------------||
|---8------8----8----8----------|---8------------------||
|-------------------------------|----------------------||
|-------------------------------|----------------------||


|---------------------------|------------------|
|---------------------------|------------------|
|---------------7b8r==(7)p5-|------------------|
|---------------------------|------------------|
|---------------------------|------------------|
|---------------------------|------------------|
|
|
|---------------------------|------------------|
|--------------11b13r(11)p8-|------------------|
|--------------10b12r(10)p8-|------------------|
|---------------------------|------------------|
|---------------------------|------------------|
|---------------------------|------------------|
|
|
|---------------------------|------------------|
|--8----8---8---8-----------|--8---8---8---8---|
|-10---10---8---8-----------|-10--10---8---8---|
|--9----9--10--10-----------|--9---9--10--10---|
|-10---10--10--10-----------|-10--10--10--10---|
|-----------8---8-----------|----------8---8---|


|-------------|-------------|-------------|
|-6--6--8--8--|-6--6--8--8--|-7--7--3--1--|
|-7--7--8--8--|-7--7--8--8--|-5--5--3--2--|
|-8--8--8--8--|-8--8--8--8--|-7--7--5--3--|
|-8--8--6--6--|-8--8--6--6--|-5--5--5--3--|
|-6--6--------|-6--6--------|-------3--1--|


  Gtrs II, III
|--------------------|-----------------------------||-------------------|
|--------------------|-----------------------------||-------------------|
|------10-8----------|-----------------------------||-7---5---5---/10---|
|-----------10-8-7---|------3-1--------------------||-8---7---5----/7---|
|------------------8-|-8--------3-1----------------||-------------------|
|--------------------|--------------4b5-1-1-1-1-1--||-------------------|
|
| Gtr I
|
|--------------------|-----------------------------||---------5-----5---|
|-6-----1------------|-6----1----------------------||-6---6---6-----6---|
|-7-----2------------|-7----2----------------------||-7---7---7-----7---|
|-8-----3------------|-8----3----------------------||-8---8---7-----7---|
|-8-----3------------|-8----3----------------------||-8---8---5-----5---|
|-6-----1------------|-6----1----------------------||-6---6-------------|


|---------------|--------------|------------------|------------|
|-----------1-2-|-3-----5---7--|-3---5---7--8-----|------------|
|-7---------2-2-|-3------------|-4---5---7--9-----|------------|
|-5-----7---3-4-|-5-----5---7--|-5---7---9-10-----|------------|
|---------------|--------------|------------------|------------|
|-------5-------|--------------|------------------|------------|
|
|
|-------5---5---|-----------5--|------------------|-6-6-(6)----|
|-3--3--6---6---|-3--3--5---6--|---------------5--|-6-6-(6)----|
|-3--3--7---7---|-3--3--6---7--|---------------5--|-7-7-(7)----|
|-5--5--7---7---|-5--5--7---7--|-5-------9-----5--|-8-8-(8)----|
|-5--5--5---5---|-5--5--7---5--|-5---7---9-----3--|------------|
|-3--3----------|-3--3--5------|-3---5---7--------|------------|


  Gtr I
|-------------5---|-----------------|---6-(6)----|
|----5--------6---|----3--------5---|-5-6-(6)----|
|----6--------7---|----3--------5---|-5-7-(7)----|
|----7--------7---|----5--------5---|-5-8-(8)----|
|----7-----5--5---|----5-----3--3---|-3----------|
|-5--5---5--------|-3--3---3--------|------------|


  Gtr III
|------------------|----------------------|---------------|
|-----------8-7b8==|=(7)-----(7)r----/8-8-|-(8)-----------|
|-----------8-7b8==|=(7)-----(7)-----/8-8-|-(8)-----------|
|------------------|----------------------|---------------|
|------------------|----------------------|---------------|
|------------------|----------------------|---------------|
|
| Gtr II
|
|------------------|----------------------|---------------|
|-1---1--3--4------|------1-------3---4-4-|------1--3--4--|
|-2---2--3--3------|------2-------3---3-3-|------2--3--3--|
|-3---3--3--5------|------3-------3---5-5-|------3--3--5--|
|-3---3------------|------3---------------|------3--------|
|-1---1------------|--1---1---------------|--1---1--------|


|-------------13b15-13b15==|=(13)r------13b15-13b15==|
|-------------14b16-14b16==|=(14)r------14b16-14b16==|
|--------------------------|-------------------------|
|--------------------------|-------------------------|
|--------------------------|-------------------------|
|--------------------------|-------------------------|
|
|
|--------------------------|-------------------------|
|--------------------------|-------------------------|
|--------------------------|------------13b15-13b15==|
|--------------------------|-------------------------|
|--------------------------|-------------------------|
|--------------------------|-------------------------|
|
| Gtr IV
|
|--------------------------|-------------------------|
|----------3---------------|-------------------------|
|----------3---8-----8-----|--(8)--------8-----8-----|
|----3---3-3---8-----8-----|--(8)--------8-----8-----|
|--------------6-----6-----|--(6)--------6-----6-----|
|-1----1-------------------|-------------------------|


||--(13)-----(13)r(13)-13b15-13b15===||
||o-(14)-----(14)r(14)-14b16-14b16==o||
||-----------------------------------||
||-----------------------------------||
||o---------------------------------o||
||-----------------------------------||
||
||-----------------------------------||
||o---------------------------------o||
||--(13)r--------------13b15-13b15===||
||-----------------------------------||
||o---------------------------------o||
||-----------------------------------||
||
||-----------------------------------||
||o---------------------------------o||
||---(8)----------------8-----8------||
||---(8)----------------8-----8------||
||o--(6)----------------6-----6-----o||
||-----------------------------------||


|-(13)---------------------(13)r===(13)--------13b15----13b15========|
|-(14)---------------------(14)r===(14)--------14b16----14b16========|
|--------------------------------------------------------------------|
|--------------------------------------------------------------------|
|--------------------------------------------------------------------|
|--------------------------------------------------------------------|
|
|
|--------------------18b20r(18)p15-----------------------------18b20r|
|------18b20r(18)p16--------------------18b20r(18)p==16--------------|
|--------------------------------------------------------------------|
|--------------------------------------------------------------------|
|--------------------------------------------------------------------|
|--------------------------------------------------------------------|
|
|
|--------------------------------------------------------------------|
|--------------------------------------------------------------------|
|--(8)------------------------------------------8--------8-----------|
|--(8)------------------------------------------8--------8-----------|
|--(6)------------------------------------------6--------6-----------|
|--------------------------------------------------------------------|


   6x
||--(13)------------------------(13)r===(13)--------13b15----13b15==========||
||o-(14)------------------------(14)r===(14)--------14b16----14b16=========o||
||--------------------------------------------------------------------------||
||--------------------------------------------------------------------------||
||o------------------------------------------------------------------------o||
||--------------------------------------------------------------------------||
|
|  6x
||--(18)p15---------------18b20r(18)p15-----------------------------18b20r==||
||o---------18b20r(18)p16--------------------18b20r(18)p==16---------------o||
||--------------------------------------------------------------------------||
||--------------------------------------------------------------------------||
||o------------------------------------------------------------------------o||
||--------------------------------------------------------------------------||
|
|  6x
||--------------------------------------------------------------------------||
||o------------------------------------------------------------------------o||
||---(8)---------------------------------------------8--------8-------------||
||---(8)---------------------------------------------8--------8-------------||
||o--(6)---------------------------------------------6--------6------------o||
||--------------------------------------------------------------------------||
Tap to rate this tab
 
# A B C D E F G H I J K L M N O P Q R S T U V W X Y Z