Song name
# A B C D E F G H I J K L M N O P Q R S T U V W X Y Z

Queen - We Are The Champions chords

Highlighted       Show chord diagrams
This is my first tab that I have submitted so I hope it is a good one and I hope to 
upload more. Hope you enjoy it!

Verse

             Cm     Gm
I've paid my dues
            Cm      Gm
 Time after time
              Cm         Gm
 I've done my sentence
                  Cm     Gm
 But committed no crime
         Eb          Ab
 And bad mistakes
             Eb      Ab
 I've made a few
             Eb
 I've had my share of sand
 Daug         C
 Kicked in my face
     Bb
 But I've come through

Pre-chorus
 Bb                                     C
 And we mean to go on and on and on and on

Chorus

 F          Am             Dm       Bb  C
 We are the champions - my friends
     F             Am
 And we'll keep on fighting
          Bb  (riff1)  F#m6
 Till the end
 Gm
 We are the champions
 Bbm    (riff2)
 We are the champions
 F           Eb/G
 No time for losers
        Ab         Bb               C
 'Cause we are the champions of the World

Outro Chorus

Fm Bb Fm Bb Fm Cm

Verse

 I've taken my bows
 And my curtain calls
 You brought me fame and fortune
 And everything that goes with it
 I thank you all
 But it's been no bed of roses
 No pleasure cruise
 I consider it a challenge before
 The whole human race
 And I ain't gonna lose

Pre-chorus

 And we mean to go on and on and on and on

Chorus

 We are the champions - my friends
 And we'll keep on fighting
 Till the end
 We are the champions
 We are the champions
 No time for losers
 'Cause we are the champions of the World

 We are the champions - my friends
 And we'll keep on fighting
 Till the end
 We are the champions
 We are the champions
 No time for losers
                   Bb
 'Cause we are the champions

When you finish hold the Bb and let it ring and fade out.

There are to small riffs in the song and they are tab below. They go where it say riff1 
and riff2

Riff1

e|---------------------------------------------------------|
B|---------------------------------------------------------|
G|---------------------------------------------------------|
D|---------------------------------------------------------|
A|---0-----------------------------------------------------|
E|------3--2-----------------------------------------------|

Riff2

e|---------------------------------------------------------|
B|---------------------------------------------------------|
G|---------------------------------------------------------|
D|----------------5----------------------------------------|
A|---1s4----7----------------------------------------------|
E|---------------------------------------------------------|

They only small simple riffs to add layers to the song.
When playing the verse and outro chorus the chords are play like an arpeggio by picking 
the strings this adds atmosphere.

Thank you for using my tab hope you enjoyed learning my first tabbed song I uploaded.
Tap to rate this tab
# A B C D E F G H I J K L M N O P Q R S T U V W X Y Z