Song name
# A B C D E F G H I J K L M N O P Q R S T U V W X Y Z

Queen - Another One Bites The Dust tab

-------------------------------------------------------------------------------
                             Another One Bites The Dust - Queen
-------------------------------------------------------------------------------
Tabbed by:Waleswasp
E-mail:russellscott19@yahoo.co.uk
Email/comment any suggestions or what you think of it :)
My First Tab ever :) posted


Tuning:Standard
Not 100% correct I think because it after all a bass guitar playing the song.

e|---------------------------------------------------------------------------|
B|---------------------------------------------------------------------------|
G|---------------------------------------------------------------------------|
D|---------------------------------------------------------------------------|
A|---------------------------------------------------------------------------|
E|--5-3----0--0--0----0-0-0---3p0-5----5-3--0--0--0---0-0-0---3p0-5----------|
NOTE:PULL OFF ON 3 IS OPTIONAL-Just how I play it.

e|-------------------------------------|
B|-------------------------------------|
G|------------------0-----2------------|    
D|-2--2--2---2-2-2-----2---------------|  *X5*
A|-------------------------------------|   
E|-------------------------------------|

e|---------------------------------------------------------------------------|
B|---------------------------------------------------------------------------|
G|---------------------------------------------------------------------------|
D|-------------5-----------------------------------5-------------------------|
A|-3-3---3-4-5-------3-3---3-4-5-------3-3---3-4-5--------0-0--0-0-2--0------|
E|---------------3---------------3-------------------3------------------3----|

e|-------------------------------------------|
B|-------------------------------------------|
G|-------------------------------------------|
D|-------------------------------------------| X3
A|-------------------------------------------|
E|--0--0--0---0-0-0--3p0-5-------------------|

e|---------------------------------------------|
B|---------------------------------------------|
G|---------------------------------------------|
D|---------------------------------------------|
A|---------0-0-0---------0---2--0--------------|
E|--2--2-2---------2-2-2---2------3------------|

Tap to rate this tab
# A B C D E F G H I J K L M N O P Q R S T U V W X Y Z