Song name
# A B C D E F G H I J K L M N O P Q R S T U V W X Y Z

Queens Of The Stone Age - Misfit Love tab

Help us improve GuitareTab! Take a short survey!
Queens of the Stone Age - Misfit Love

I couldnt find a decent tab (especially including Troy's part) so i made my own. (First tab!!)

ENJOY! (I'll keep adding to it as i work it out)

hb - Half bend
(xx) - Place your hand on the fret but not pressing
\ - Slide Down
/ - Slide Up

=====
INTRO/VERSE - Lots of synths, bass and drums then...
=====
Guitar 1: (Homme)
e:--------------------------------------------|
B:--------------------------------------------|
G:--------------------------------------------|
D:--------------------------------------------|
A:--------------------------------------------|
E:-0-2-0-2-----0-2-----0-2-0-2-----0-0-0-0-2--|   (keeps playing)


Guitar 2: (Troy) Inbetween each break of the synth you'll hear loads of scratching. This
(Im guessing at the 4th frets) he just lays his hand across like the 4th 5th and 6th
scratches in different rhythmns. He'll also slide down everynow and then. Just keep it 
Its pretty difficult to explain (As you can tell).

At about 0:51 he moves up to the 10th fret, and you can hear like a different harmonic.
this time its basically a constant background scratching.

Then at 1:02 he throws in scratching with some added notes For the placement of your
look at the tab below.

   0:21   0:51           1:02
e:-x(4)---x(10)-|  e:-x(17)x-x----17-x-x-17-17-|
B:-x(4)---x(10)-|  B:-x(14)x-14---x--x-x-x--x--|
G:-x(4)---x(10)-|  G:-x(17)x-17hb-x--x-x-x--x--|
D:-x(4)---x(10)-|  D:-x(14)x-x----x--x-x-x--x--|
A:-x(4)---x(10)-|  A:-x(14)x-x----x--x-x-x--x--|    It varies this so just
E:-x(4)---x(10)-|  E:-x(14)x-x----x--x-x-x--x--| x4 listen to the track

    1:17 - After hitting the notes slide down the neck
e:-x-x17-17----\
B:-x-x13-13----\
G:-x-x-x--x----\
D:-x-x-x--x----\
A:-x-x-x--x----\
E:-x-x-x--x----\-   x4

THEN! - Finally starts getting into it - 1:24 - RIFF 1

e:-------x-----x--x-------x-----x-x-x-x-|
B:-------x-----x--x-------x-----x-x-x-x-|
G:------17----17-17------17----17-x-x-x-|
D:------16----16-16------16----16-x-x-x-|
A:------15----15-15------15----15-x-x-x-|
E:-12/14---14-------12/14---14----x-x-x-| (does this throughout the verse)

Homme Start singing....

======
CHORUS - 2:11 - If you could call it that.
======
Guitar's 1 & 2 - RIFF 2

e: ----------------------------------------|
B:-----------------------------------------|
G:-----------------------------------------|
D:-----------------------------------------|
A:---------8-------8------------11------11-|
E:-0-2-0-2/6---0-2/6----0-2-0-2/8---0-2/8--| x2

Then back to RIFF 1
Guitar 1 continues

Guitar 2 - 2:33 - In sync with singing - RIFF 3

e:-9-9-9-9-9-9-9-9-9-9-9-9-9-9-9-9-8-8-8-8-8-8-8-8-8-5-5-5-5-5-5-5-5-|
B:-------------------------------------------------------------------|
G:-------------------------------------------------------------------|
D:-------------------------------------------------------------------|
A:-------------------------------------------------------------------|
E:-------------------------------------------------------------------| x4

Again Guitar 1 continues

Guitar 2 - Offbeat (Listen to track)

e:-------------------|
B:-------------------|
G:-------------------|
D:-------------------|
A:------16---14---10-|
E:-14----------------| x2 Then back to RIFF 1 x12

Then CHORUS/RIFF 2

RIFF 1 x4

AND THEN!!! 4:19

Guitar 1 -
   A                               G#
e:-5-5-5-5-5-5-5-5-5-5-5-5-5-5-5-5-4-4-4-4-4-4-4-4-4-4-4-4-4-4-4-4-|
B:-5-5-5-5-5-5-5-5-5-5-5-5-5-5-5-5-4-4-4-4-4-4-4-4-4-4-4-4-4-4-4-4-|
G:-6-6-6-6-6-6-6-6-6-6-6-6-6-6-6-6-5-5-5-5-5-5-5-5-5-5-5-5-5-5-5-5-|
D:-7-7-7-7-7-7-7-7-7-7-7-7-7-7-7-7-6-6-6-6-6-6-6-6-6-6-6-6-6-6-6-6-|
A:-7-7-7-7-7-7-7-7-7-7-7-7-7-7-7-7-6-6-6-6-6-6-6-6-6-6-6-6-6-6-6-6-|
E:-5-5-5-5-5-5-5-5-5-5-5-5-5-5-5-5-4-4-4-4-4-4-4-4-4-4-4-4-4-4-4-4-|
   D
e:-5-5-5-5-5-5-5-5-5-5-5-5-5-5-5-5--------------------------------|
B:-7-7-7-7-7-7-7-7-7-7-7-7-7-7-7-7--------------------------------|
G:-7-7-7-7-7-7-7-7-7-7-7-7-7-7-7-7--6-----6-----6-----6-----6---6-|
D:-7-7-7-7-7-7-7-7-7-7-7-7-7-7-7-7----4-4---4-4---4-4---4-4---4---|
A:-5-5-5-5-5-5-5-5-5-5-5-5-5-5-5-5--------------------------------|
E:----------------------------------------------------------------| x4

Guitar 2 - Im not 100% about this but I'll change it if its wrong!

e:---------------|
B:---------------|
G:-11~---9~---6~-|
D:---------------|
A:---------------|
E:---------------|

THEN - 5:15

e:-5-5-5-5-5-5-5-5-4-4-4-4-4-4-4-4-5-5-5-5-5-5-5-5-5-5-5-5-5-5-5-5-|
B:-5-5-5-5-5-5-5-5-4-4-4-4-4-4-4-4-7-7-7-7-7-7-7-7-5-5-5-5-5-5-5-5-|
G:-6-6-6-6-6-6-6-6-5-5-5-5-5-5-5-5-7-7-7-7-7-7-7-7-6-6-6-6-6-6-6-6-|
D:-7-7-7-7-7-7-7-7-6-6-6-6-6-6-6-6-7-7-7-7-7-7-7-7-7-7-7-7-7-7-7-7-|
A:-7-7-7-7-7-7-7-7-6-6-6-6-6-6-6-6-5-5-5-5-5-5-5-5-7-7-7-7-7-7-7-7-|
E:-5-5-5-5-5-5-5-5-4-4-4-4-4-4-4-4-----------------5-5-5-5-5-5-5-5-|

Guitar 2 Continues with what its doing

Guitar 3

e:-----------------------------------------------------------------|
B:-10-10-10-10-10-10-10-10-9-9-9-9-9-9-9-9-13-13-13-13-13-13-13-13-|
G:-----------------------------------------------------------------|
D:-----------------------------------------------------------------|
A:-----------------------------------------------------------------|
E:-----------------------------------------------------------------| x4

AND WERE DONE!!

Any comments are welcome, just remember this is my first tab and its a total b**** to 
out,

anything you think needs changing let me know!

Cheers
Related for Misfit Love tab