Song name
# A B C D E F G H I J K L M N O P Q R S T U V W X Y Z

Queens Of The Stone Age - In The Fade Acoustic tab

-------------------------------------------------------------------------------
	        In the Fade (acoustic)- Queens of the Stone Age
-------------------------------------------------------------------------------
Tabbed by:krumpeld
Email:krumpeld@gmail.com

This is the acoustic performance done by Josh Homme and Troy VanLeeuwan in Boston. The 
can be found here
http://thephoenix.com/onthedownload/PermaLink.aspx?guid=79a96558-197f-4761-8779-0a6ad05e8f9f

first tab, so just let me know if i screwed up real badly. other than that,
i most likely missed a few accents here and there or a few extra notes thrown in.
other than that it should be note for note.

Tuning: standard

guitar I (Homme)
guitar II (VanLeeuwan)

Intro

     for this, he just taps his fingertips against the strings
Gtr.I v         v
e|----x---------x-9---------------------------------------------------------|
B|--9-x-12---10-x-----------vocals come in on 2nd time----------------------|
G|----x---------x-------x6--------------------------------------------------|
D|----x---------x-----------------------------------------------------------|
A|--7-x-9----0--x-9---------------------------------------------------------|
E|----x---------x-----------------------------------------------------------|

verse

  Gtr. I
e|-------x-------------------------x----9----------------------------------|
B|--9----x-----12--------------10--x---------------------------------------|
G|-------x-------------------------x---------------------------------------|x4
D|-------x-------------------------x---------------------------------------|
A|--7----x-----9---------------0---x----9----------------------------------|
E|-------x-------------------------x---------------------------------------|
 |Gtr. II                            ( )=after 1st time
e|-------------------------------------------------------------------------|
B|-------------------------------------------------------------------------|
G|-------------------------------------------------------------------------|x4
D|--9(9)9----------------------999-----------------------------------------|
A|--7(7)7----------------------777-----------------------------------------|
E|-------7-9-7-9-xxx-9-0-xx-------7-9-7-9-x-x-9-0-xx-----------------------|

chorus Pt. 1

Gtr. I&II
e|---------------------------------------------------------------------------|
B|---------------------------------------------------------------------------|
G|9--9--9--9--9--9--9--9--9--9--9--9--9--9--9--9---------9-9-x-x-------------|
D|11-11-11-11-11-11-11-11-11-11-11-11-11-11-11-11--9-11--9-9-x-x-11--11-11-11|
A|12-12-12-12-12-12-12-12-12-12-12-12-12-12-12-12--------7-7-x-x-11--11-11-11|
E|---------------------------------------------------------------9---9--9--9-|

e|------------------------------------------------------------------------------|
B|------------------------------------------------------------------------------|
G|------------9--9--9--9--9--9--9---------------------9-9-xxx-------------------|
D|11-11-11-11-11-11-11-11-11-11-11-9-11-9-11--9-99h11-9-9-xxx-11--11-11-11-11-11|
A|11-11-11-11-12-12-12-12-12-12-12--------------------7-7-xxx-11--11-11-11-11-11|
E|9--9--9--9--------------------------------------------------9---9--9--9--9--9-|

e|-----------------------------------------------------------------------------|
B|-----------------------------------------------------------------------------|
G|9--9--9--9--9--9--9--------------------9-9-xxx---------------------9--9--9---|
D|11-11-11-11-11-11-11-9-11-9-11-9-99h11-9-9-xxx-11--11-11-11-11-11--11-11-11--|
A|12-12-12-12-12-12-12-------------------7-7-xxx-11--11-11-11-11-11--12-12-12--|
E|-----------------------------------------------9---9--9--9--9--9-------------|

e|------------------------------------------------------------------------------|
B|9--9--9--9--------------------9-9-xxx-----------------------------------------|
G|11-11-11-11-9-11-9-11-9-99h11-9-9-xxx-11--11-11-11-11-11----------------------|
D|12-12-12-12-------------------7-7-xxx-11--11-11-11-11-11----------------------|
A|--------------------------------------9---9--9--9--9--9-----------------------|
E|------------------------------------------------------------------------------|

Chorus Pt. 2

Gtr. I + |
Gtr. II  v  Gtr. I (Gtr. II repeat chorus)
e|--------|---------------------------------------------------------------------|
B|--------|-9---------------------------------------------9---------------------|
G|------9-|---9-----------------9-9-xx-----------------9----9-------------------|
D|-9-11---|------11p9-11--9h11--9-9-xx-11--11-11--9-11---------11p9-11--9h11----|
A|--------|---------------------7-7-xx------------------------------------------|
E|--------|---------------------------------------------------------------------|
                                        *half bend
e|------------------------------------------------------------------------------|
B|---------------------------9----12-9-9*---------------------------------9-----|
G|-9-9-xx-----------------9----9----------------9-9-xx-----------------9----9---|
D|-9-9-xx-11--11-11--9-11------------------9h11-9-9-xx-11--11-11--9-11----------|
A|-7-7-xx-11--11-11-----------------------------7-7-xx-11--11-11----------------|
E|--------9---9--9-------------------------------------9---9--9-----------------|

e|--------------------------------------------------------------------------|
B|--------------------------------------------------------------------------|
G|---------------9-9-xx-----------------------------------------------------|
D|-11p9-11--9h11-9-9-xx-11--------back to verse-----------------------------|
A|---------------7-7-xx-11--------------------------------------------------|
E|----------------------9---------------------------------------------------|

Outro
 i can't get the outro done well enough from the live acoustic version but this is how 
is recorded on Rated R
(i'm pretty sure, at least)
e|-----------------------------------------------------------------------------|
B|-----------------------------------------------------------------------------|
G|-----------------------------------------------------------------------------|
D|--------------------------------repeat until finish--------------------------|
A|--11-11-11-11-11-11-11-11-11-11----------------------------------------------|
E|--9--9--9--9--9--9--9--7--7--7-----------------------------------------------|


Order of Song
          _
Intro      \
Verse       |-x2
Chorus 1&2_/
Outro

lyrics:
Cracks in the ceiling
Crooked pictures in the hall
Countin and breathin
I'm leaving here tomorrow
They don't know
I never do you any good
Laughin is easy
I would if I could

Ain't gonna worry
Just live till you die, I wanna drown
With nowhere to fall
Into the arms of someone
There's nothing to save and I know
You live till you die

Live till you die, I know

Loosing a feelin that
I couldn't give away
Countin and breathin
Disappearin in the fade
They don't know
I never do you any good
Stoppin and stayin
I would if I could

Ain't gonna worry
Just live till you die, I wanna drown
With nowhere to fall
Into the arms of someone
There's nothing to save I know
You live till you die

Live till you die, I know

| /  slide up
| \  slide down
| h  hammer-on
| p  pull-off
| ~  vibrato
| +  harmonic
| x  Mute note
===============================================================================
Tap to rate this tab
 
# A B C D E F G H I J K L M N O P Q R S T U V W X Y Z