Song name
# A B C D E F G H I J K L M N O P Q R S T U V W X Y Z

Queens Of The Stone Age - A Song For The Deaf tab

-------------------------------------------------------------------------------
			     A Song For The Deaf - Queens Of the Stone Age
-------------------------------------------------------------------------------

Tabbed By : AudioMetaRage 
e-mail: zellerjon@gmail.com


For bass, dunno why it went under guitar tabs.

Tuning: Standard


Only the basic layout, but since the other tabs are either of the wrong song or messed up. 
I thought I would put up how I played it at a jam a while ago. 
There are some stuff missing, if I ever get to play it again I will try to figure it out. 
Or if you know the rest plz email me og write in the comment section.

Intro/Verse
G|------------------------------------|
D|-----------------------14-14--------|
A|-16-15---16-15---16-15-------16-15--| 
E|0-------0-------0-------------------|

Variation of Intro/verse
G|------------------------------------|
D|-1717--1414---------14-14-----------|
A|-------------16-15--------16-15-----|
E|0----0-----0------------------------|

Chorus (A little unsure but it sounds about right)
G|------------------------------|
D|------------------------------|
A|------------------------------|
E|-3-555555557777777733333333---|

G|------------------------------|
D|------------------------------|
A|------------------------------|
E|--3-55555555777777772*--------|

| /  slide up
| \  slide down
| h  hammer-on
| p  pull-off
| ~  vibrato
| +  harmonic
| x  Mute note
=========================================================
Tap to rate this tab
 
# A B C D E F G H I J K L M N O P Q R S T U V W X Y Z