Song name
# A B C D E F G H I J K L M N O P Q R S T U V W X Y Z

Queens Of The Stone Age - Leg Of Lamb Acoustic tab

‘Leg of Lamb’ Acoustic by Queens of the Stone Age.
Tabbed in standard tuning on an acoustic guitar, Intro and Rhythm Guitar riffs are based 
Mathew's tab with some tweaking for the fill.


    Intro
  E: ----------------|
  B: ----------------|
  G: --5-5-----------|
  D: --5-5-----------|
  A: --3-3-----------|
  E: ----------------|

  Verse
  Rhythm Guitar
  E: --------------------------------------------------------|
  B: --------------------------------------------------------|
  G: --7-7-7-7----------------7-7-6-6-5-5--5-----------------|
  D: --7-7--------------------7-7-6-6—3-3--3-----------------| every now any and again.
  A: --5-5--------------------5-5-4-4-3-3--3-----------------|
  E: --------------------------------------------------------|

  Verse
  Lead Guitar
  E: -------------------------------------------------------|
  B: -------------------------------------------------------|
  G: ------7-8--5-------------------------------------------|
  D: --7-5--------757---------------------------------------|
  A: -------------------------------------------------------|
  E: -------------------------------------------------------|

  Chorus x 2
  Guitars 1 and 2

  E: -------------------------------------------------------|
  B: -------------------------------------------------------|
  G: --7-7--7-7-7--(7)---5-5--5-5-5--(5)---6-6--6-6-6--(6)--|
  D: --7-7--7-7-7--(7)---5-5--5-5-5--(5)---6-6--6-6-6--(6)--|
  A: --5-5--5-5-5--(5)---3-3--3-3-3--(3)---4-4--4-4-4--(4)--|
  E: -------------------------------------------------------|

  E: -------------------------------------------------------|
  B: -------------------------------------------------------|
  G: -------------------------------------------------------|
  D: --7-7--7-7-7--(7)---8-8-8-8-8-8-8-8--3-3-3-3-3-3-3-3---|
  A: --7-7--7-7-7--(7)---8-8-8-8-8-8-8-8--3-3-3-3-3-3-3-3---|
  E: --5-5--5-5-5--(5)---6-6-6-6-6-6-6-6--1-1-1-1-1-1-1-1---|


  E: -------------------------------------------------------|
  B: -------------------------------------------------------|
  G: -------------------------------------------------------|
  D: --5-5-5-5-5-5-5-5--7-7-7-7-7-7-7-7---------------------|
  A: --5-5-5-5-5-5-5-5--7-7-7-7-7-7-7-7---------------------|
  E: --3-3-3-3-3-3-3-3--5-5-5-5-5-5-5-5---------------------|

  Solo
  Lead Guitar

  E: ---16-16b-16b--17-17-17-14b---17-14b---16b-17-17-17----|
  B: -------------------------------------------------------|
  G: -------------------------------------------------------|
  D: -------------------------------------------------------|
  A: -------------------------------------------------------|
  E: -------------------------------------------------------|

  E: ---16-16b-16b--17-17-17-17b-17b-19-19-19-19--17-14b-14--|b
  B: --------------------------------------------------------|
  G: --------------------------------------------------------|
  D: --------------------------------------------------------|
  A: --------------------------------------------------------|
  E: --------------------------------------------------------|

  E: ---14--17--14------------------------------------------|
  B: -------------------------------------------------------|
  G: -------------------------------------------------------|
  D: -------------------------------------------------------|
  A: -------------------------------------------------------|
  E: -------------------------------------------------------|
Tap to rate this tab
 
# A B C D E F G H I J K L M N O P Q R S T U V W X Y Z