Guitaretab - guitar tabs
Song name
# A B C D E F G H I J K L M N O P Q R S T U V W X Y Z

Queens Of The Stone Age - If Only tab

If only - solo
Queens of the stone age

About 99%, it's the tab by drewheasman but with a few minor adjustments. enjoy.

Solo 1 part 1
e|----------------------------------------------------------------------|
B|----------------------------------------------------------------------|
G|----------------------------------------------------------------------|
D|-------5b-5r----------------------------------------------------------|
A|-----4-------4-6-6b-6-4----4--4--4h6p4\3--3h4p3\1--1--1---------------|
E|-4h6--------------------6--------------------------------4--6--6------|

Solo 1 part 2
e|----------------------------------------------------------------------|
B|--------------------------------------9-11-9-11----9----9-------------|
G|----6-8-6h8p6---6-8p6-8/10-10-108h10-----------10---10---10-86------|
D|-/8-----------8-------------------------------------------------------|
A|----------------------------------------------------------------------|
E|----------------------------------------------------------------------|

e|----------------------------------------------------------------------|
B|----------------------------9-11-11-9-11-11-9-11b-11b-9h11p9----------|
G|--8-6-8/10-10-10-10-10-8-10----------------------------------10-------|
D|----------------------------------------------------------------------|
A|----------------------------------------------------------------------|
E|----------------------------------------------------------------------|
[ Tab from: http://www.guitaretab.com/q/queens-of-the-stone-age/121319.html ]
Solo 2
e|---------------------------------------------------------------------------|
B|---------------------------------------------------------------------------|
G|---------------------------------------------------------------------------|
D|----------13-13--13-13--13-13--13-13--13-13--13-13--13-13--13-13--13--13---|
A|---------------------------------------------------------------------------|
E|---------------------------------------------------------------------------|
  (Feedback)

e|---------------------------------------------------------------------------|
B|---------------------------------------------------------------------------|
G|---------------------------------------------------------------------------|
D|-11--11--13p11-----------------------------------------11-13-13--13-13-----|
A|---------------13-13--11-13-13--13-13-13--13-13-13--13---------------------|
E|---------------------------------------------------------------------------|

e|---------------------------------------------------------------------------|
B|---------------------------------------------------------------------------|
G|---------------------------------------------------------------------------|
D|-13-13--13-13--13-13--13-13--13B-13--11-13-11----------11----11-13---------|
A|----------------------------------------------13-11-13----13-------13------|
E|---------------------------------------------------------------------------|

e|---------------------------------------------------------------------------|
B|---------------------------------------------------------------------------|
G|---------------------------------------------------------------------------|
D|---------------------------------------------------------------------------|
A|-11h13-11h13~--------------------------------------------------------------|
E|---------------------------------------------------------------------------|

Related for If Only tab