Song name
# A B C D E F G H I J K L M N O P Q R S T U V W X Y Z

Queens Of The Stone Age - Another Love Song tab

Artist:     Queens of the Stone Age
Song:       Another Love Song (Nick's Acoustic Version)
Tuning:     Standard
Tabbed by:  Ron Van Sexron
Email: 	    GatesofPurgatory@cox.com
Notes:      This is the way Nick plays it when he is doing his solo gigs.
These are the chords used and the order they are used in, listen to song
for pattern especially the first part of the bridge.


Intro (x1)
|--------------|
|--------------|
|--6-----6-----|
|--6--6--6--6--|
|--4--6--4--6--|
|--4--4--4--4--|

Verse 1 (x1)
|-----------------------------------------------------|
|--4-----------4-----4-----4-----------4-----2--3--5--|
|--6--4--1--4--6--4--6--4--6--4--1--4--6--4--4--5--7--|
|--6--6--2--6--6--6--6--6--6--6--2--6--6--6--4--5--7--|
|--4--6--2--6--4--6--4--6--4--6--2--6--4--6--2--3--5--|
|--4--4--0--4--4--4--4--4--4--4--0--4--4--4-----------|
  "You're so impossible..."

Chorus (x1)
|--------------|
|--------------|
|--6-----6-----|
|--6--6--6--6--|
|--4--6--4--6--|
|--4--4--4--4--|
  "It's just another..."

Verse 2 (x2)
|-----------------------------------------------------------|
|--4-----------4-----4-----4-----------4--------------------|
|--6--4--1--4--6--4--6--4--6--4--1--4--6--4--1--4-----------|
|--6--6--2--6--6--6--6--6--6--6--2--6--6--6--2--6--(Puase)--|
|--4--6--2--6--4--6--4--6--4--6--2--6--4--6--2--6-----------|
|--4--4--0--4--4--4--4--4--4--4--0--4--4--4--0--4-----------|
  "It's never easy..."				    "It's just another..."

Chorus (x2)
|--------------|
|--------------|
|--6-----6-----|
|--6--6--6--6--|
|--4--6--4--6--|
|--4--4--4--4--|
  "It's just another..."

Bridge (x4) (Pause after 4th time)		
|-----------------------------------------|
|--5-4-5-4-5-4-5-4-5-4-5-4-5-4-5-4--------|
|--6-6-6-6-6-6-6-6-6-6-6-6-6-6-6-6--6--5--|
|--6-6-6-6-6-6-6-6-6-6-6-6-6-6-6-6--8--7--|
|--4-4-4-4-4-4-4-4-4-4-4-4-4-4-4-4--8--7--|
|--4-4-4-4-4-4-4-4-4-4-4-4-4-4-4-4--6--5--|
  "I never told you..."

Chorus (x4)
|--------------|
|--------------|
|--6-----6-----|
|--6--6--6--6--|
|--4--6--4--6--|
|--4--4--4--4--|
  "It's just another..."
Tap to rate this tab
# A B C D E F G H I J K L M N O P Q R S T U V W X Y Z