Guitaretab - guitar tabs
Song name
# A B C D E F G H I J K L M N O P Q R S T U V W X Y Z

Queens Of The Stone Age - Infinity tab

Band- Queens Of The Stone Age
Song- Infinity

Tuning: Down 2 Whole Steps to C (C-F-Bb-Eb-G-C)
Notes:  'Infinity' is track #1 on 'Heavy Metal 2000'


Verse:
 C|---------------------------------------------||
 G|---------------------------------------------||
Eb|---------------------------------------------||
Bb|---------------------------------------------||
 F|---10p7-10p7-10p7-7-7-10p7-10p7-10p7-7-7-7---||
 C|---------------------------------------------||


Lead 1:
 C|------------------||
 G|------------------||
Eb|---14-----12-14---||
Bb|------------------||
 F|------------------||
 C|------------------||


Lead 2:
 C|--------------||
 G|--------------||
Eb|---17----14---||
Bb|--------------||
 F|--------------||
 C|--------------||


Lead 3:
 C|---17---||
 G|--------||
Eb|--------||
Bb|--------||
 F|--------||
 C|--------||


Fill 1:
 C|---------------||
 G|---------------||
Eb|---------------||
Bb|-----5-7p5-----||
 F|---7-------7---||
 C|---------------||


Fill 2:
 C|---------||
 G|---------||
Eb|---------||
Bb|---------||
 F|---/15---||
 C|---------||


Fill 3:
 C|-----------------||
 G|-----------------||
Eb|-----------------||
Bb|-----5h7---5h7---||
 F|---7-----7-------||
 C|-----------------||


Fill 4:
 C|------------------||
 G|------------------||
Eb|--------------7---||
Bb|---7p5---5h7------||
 F|-------7----------||
 C|------------------||


Chorus:
 C|-------------------------------------------------||
 G|-------------------------------------------------||
Eb|-------------------------------------------------||
Bb|---9-9-10-10-10-10-10-10-10-10--5-5--7-7-7-5-7---||
 F|---9-9-10-10-10-10-10-10-10-10--5-5--7-7-7-5-7---||
 C|---7-7--8--8--8--8--8--8--8--8--3-3--5-5-5-3-5---||


Chorus Lead: (probably played on a keyboard)
1st Time.         4x                4x
 C|-----------------|-----------------|--------------------|
 G|---17h18p17-15---|---14h15p14-12---|---15-17-15p14h15---|
Eb|-----------------|-----------------|--------------------|
Bb|-----------------|-----------------|--------------------|
 F|-----------------|-----------------|--------------------|
 C|-----------------|-----------------|--------------------|

2nd Time.      3x                4x
 C|-----------------|-----------------|------------------|--------------------|
 G|---17h18p17-15---|---18h20-17h18---|---14h15p14--12---|---15-17-15p14h15---|
Eb|-----------------|-----------------|------------------|--------------------|
Bb|-----------------|-----------------|------------------|--------------------|
 F|-----------------|-----------------|------------------|--------------------|
 C|-----------------|-----------------|------------------|--------------------|

3rd Time.         4x                4x
 C|-----------------|-----------------|--------------------||
 G|---17h18p17-15---|---14h15p14-12---|---15-17-15p14h15---||
Eb|-----------------|-----------------|--------------------||
Bb|-----------------|-----------------|--------------------||
 F|-----------------|-----------------|--------------------||
 C|-----------------|-----------------|--------------------||


Verse Riff (2x)

Fill 1

Verse Riff (1x)

Fill 2

Verse Riff (1x)

{band comes in}

Verse Riff w/Lead 1 (2x)

Fill 1

Verse w/Lead 1:
 "Got a hole in my head"

Fill 3

 "Everything falls right out"

Fill 1

 "Through my ears, through my eyes"

Fill 4

 "Makes no difference where you are"

Fill 2

 "You wanna know how I do it?
 I do it all right"

Verse w/Lead 2:
 "You wanna know how I do it?
 I do it all right"

Chorus:
 "I got a hole and Iíll never go home
 There ainít nothing can fill it up
 I got a hole and Iíll never go home
 There ainít no one thing"

Verse w/Lead 1 (4x)

Verse w/Lead 2:
 "A new wrong
 A new wrong"

Verse w/Lead 1:
 "You never get right back
 A new wrong"

Verse w/Lead 3:
 "You wanna know how I do it?
 I do it all right"
[ Tab from: http://www.guitaretab.com/q/queens-of-the-stone-age/138849.html ]
Chorus:
 "I gotta hole and Iíll never go home
 There ainít nothing that can fill it up
 I gotta hole and Iíll never go home
 There ainít no one thing out there"


Fill Riff:
 C|----------------------------------------------------------------------||
 G|----------------------------------------------------------------------||
Eb|----------------------------------------------------------------------||
Bb|---7-7-7--9-9-9-9-9--10-10-10-10-10--12-12-12-12-12--14-14-14-14-14---||
 F|---7-7-7--9-9-9-9-9--10-10-10-10-10--12-12-12-12-12--14-14-14-14-14---||
 C|---5-5-5--7-7-7-7-7---8--8--8--8--8--10-10-10-10-10--12-12-12-12-12---||


Outro:
 C|-------------------------------------------------------------------------||
 G|-------------------------------------------------------------------------||
Eb|-------------------------------------------------------------------------||
Bb|---7-7-7-9-7---9-9-9-10-9--10-10-10-12-10--12-12-12-14-12--14-14-14-14---||
 F|-------------------------------------------------------------------------||
 C|-------------------------------------------------------------------------||


Fill Riff (1x)


Solo:
 C|---------------------------------------------------------------------------|
 G|---17-17-17----------------------------------------------------------------|
Eb|------------------14-16-14-16--14-16------------------------12--12h14-14---|
Bb|-------------------------------------14-12--12h14-14--12h14----------------|
 F|---------------------------------------------------------------------------|
 C|---------------------------------------------------------------------------|

 C|-----------------------------------------------------|
 G|--------------------------21b---21-21-21-------19b---|
Eb|---12h14-16--14h16-19--21----------------21-21-------|
Bb|-----------------------------------------------------|
 F|-----------------------------------------------------|
 C|-----------------------------------------------------|

(can't hear 3:46-3:53)

(3:53)
 C|------------------------------------------------------------------|
 G|------------------------------------------------------------------|
Eb|---12----14-----------12----14------------------------------------|
Bb|------14----14-12-14-----14----14-12-14-14b--12-14-14--12-14-14---|
 F|------------------------------------------------------------------|
 C|------------------------------------------------------------------|

(4:01)
 C|---------------------------------------------------------------------|
 G|---21----------------------------------------------------------------|
Eb|------21-21-21-21--21-21-21--19-19-19--12-12-12--------------12-16---|
Bb|------------------------------------------------14-12--12-14---------|
 F|---------------------------------------------------------------------|
 C|---------------------------------------------------------------------|

(4:08)
 C|------------------------------------------------------------------------||
 G|------------------------------------------------------------------------||
Eb|---16-16-14-12----12--16-16-14-12----12-14--16-12-14-12----12-----19b---||
Bb|---------------14-----------------14--------------------14----12b-------||
 F|------------------------------------------------------------------------||
 C|------------------------------------------------------------------------||


Outro w/Solo:
 "Not me with a gun to my head
 I can let it go
 Not me with a gun to my head
 I can let it go
 So I sing"

Outro Riff w/Solo - (until end)


Lyrics:
 Got a whole in my head
 Everything falls right out
 Through my ears, through my eyes
 Makes no difference where you are
 You wanna know how I do it?
 I do it all right

 I got a hole and Iíll never go home
 There ainít nothing can fill it up
 I got a hole and Iíll never go home
 There ainít no one thing

 A new wrong
 A new wrong
 You never get right back
 A new wrong
 You wanna know how I do it?
 I do it all right

 I gotta hole and Iíll never go home
 There ainít nothing that can fill it up
 I gotta hole and Iíll never go home
 There ainít no one thing out there

 Not me with a gun to my head
 I can let it go
 Not me with a gun to my head
 I can let it go
 So I sing
Related for Infinity tab