Song name
# A B C D E F G H I J K L M N O P Q R S T U V W X Y Z

Queens Of The Stone Age - You Got A Killer Scene There Man tab

+
|
|
|
|Tuning - E A D G B e
|
|This song is mostly fills, so to avoid complication, I'm only showing the 
|main riff for the rhythm guitar, and all the fills for the lead guitar
|and their respective times. Any suggestions are much appreciated: |marky_wee17@hotmail.com
|
|
|Enjoy!
|
|
|
|Intro (0:00 - 0:20):
|---------------------------------------------------------------------------| 
|---12b-----12p11---12--11-12-13--11h12p11-11-11----------------------------|
|------------------------------------------------12----11b------------------| 
|---------------------------------------------------------------------------| 
|---------------------------------------------------------------------------| 
|---------------------------------------------------------------------------| 
|
|---------------------------------------------------------------------------|
|---------------------------------------------------------------------------|
|---------11-11b------------------------------------------------------------|
|---11-13--------13---/13---------------------------------------------------|
|-------------------------15---13-------------------------------------------|
|---------------------------------15----------------------------------------|
|
|
|
|Bass Line (For most of the song):
|---------------------------------------------------------------------------|
|---------------------------------------------------------------------------|
|-------7-7---------7-7--5/7-----7-7---------7-7--5/7-----------------------|
|---0---------0--0-----------0---------0--0---------------------------------|
|
|
|
|Rhythm Guitar (Sometimes Lead Guitar too):
|---------------------------------------------------------------------------|
|---15---15---15---15-------------17---15-----------17-15-0-----------------|
|---16---16---16---16-------------16---16-----------16-16-0-----------------|
|---xx---xx---xx---xx-------------xx---xx-----------xx-xx-xx----------------|
|---14---14---14---14-------------14---14-----------14-14-14----------------|
|------------------------------------0----0------------------0--------------|
|	    			End Verses with variations of this
|
|
|
|Fill 1 (0:37 - 0:39):
|---------------------------------------------------------------------------|
|---9p7---7-------9p7-------------------------------------------------------|
|-------8---8brbr-----8-----------------------------------------------------|
|---------------------------------------------------------------------------|
|---------------------------------------------------------------------------|
|---------------------------------------------------------------------------|
|
|
|
|Fill 2 (0:47 - 0:48):
|---------------------------------------------------------------------------|
|---------------------------------------------------------------------------|
|---14b---------------------------------------------------------------------|
|---------------------------------------------------------------------------|
|---------------------------------------------------------------------------|
|---------------------------------------------------------------------------|
|
|
|
|Fill 3 (0:54 - 1:02):
|---------------------------------------------------------------------------|
|---------------------------------------------------------------------------|
|---------------------------------------------------------------------------|
|---7/8-5---8--8p5----------------------------------------------------------|
|---------------------------------------------------------------------------|
|---------------------------------------------------------------------------|
|
|
|
|Fill 4 (1:10 - 1:13):
|---------------------------------------------------------------------------|
|---------------------------------------------------------------------------|
|---9brbr---7h9p7-----------------------------------------------------------|
|----------------9--7---7h9p7~~---------------------------------------------|
|---------------------9-----------------------------------------------------|
|---------------------------------------------------------------------------|
|
|
|
|Fill 5 (1:17 - 1:32):
|---------------------------------------------------------------------------|
|-----------------------------------10--8----------9p7---7-------9p7--------|
|-----------9b--------------------9---7--6-------------8---8brbr------------|
|---11p9h11----11---11----11p9h11------------11-----------------------------|
|---------------------------------------------------------------------------|
|---------------------------------------------------------------------------|
|
|---------------------------------------------------------------------------|
|---9p7--9p7--9-------------------------------------------------------------|
|--------------6/8b---------------------------------------------------------|
|---------------------------------------------------------------------------|
|---------------------------------------------------------------------------|
|---------------------------------------------------------------------------|
|
|
|
|Fill 6 (1:37 - 1:46):
|---------------------------------------------------------------------------|
|----------------------------------------------x-xx15\---------/15-12-------|
|---------------14b-12-------------9b----------x-xx15\----------------------|
|---14b-12-----------------11p9h11---11~------------------------------------|
|---------------------------------------------------------------------------|
|---------------------------------------------------------------------------|
|
|
|
|Fill 7 (2:12):
|---12----------------------------------------------------------------------|
|---15b---------------------------------------------------------------------|
|--------12/10-----------10h12p10-------------------------------------------|
|-----------------10h12-----------12-10-------------------------------------|
|---------------------------------------12----------------------------------|
|---------------------------------------------------------------------------|
|
|
|
|Fill 8 (2:21):
|---------------------------------------------------------------------------|
|---------------------------------------------------------------------------|
|---16/19-19-19-19-16h19-----19p16--------19p16-16--------------------------|
|----------------------------------17-19b----------17-----------------------|
|---------------------------------------------------------------------------|
|---------------------------------------------------------------------------|
|
|---------------------------------------------------------------------------|
|--------------------------21b-21-17----------------------------------------|
|---------------16-19b--16-----------19~----19p16-19p16---------------------|
|---------17-19-----------------------------------------19p17-19------------|
|---17h19-------------------------------------------------------------------|
|---------------------------------------------------------------------------|
|
|---------------------------------------------------------------------------|
|---------------------------------------------------------------------------|
|----------------------------------------------17---------------------------|
|--------19p17-19-----19--17--------------17-19-----------------------------|
|---17h19-----------19------19-17-19-17-19----------------------------------|
|---------------------------------------------------------------------------|
|
|---------------------------------------------------------------------------|
|---------------------------------------------17h21-21b--22b--17-15/17------|
|---16h19-16h19-16h19--16-16h19-19-16b--16h19-------------------------------|
|---------------------------------------------------------------------------|
|---------------------------------------------------------------------------|
|---------------------------------------------------------------------------|
|
|
|
|Fill 9 (2:45 & 2:50):
|---------------------------------------------------------------------------|
|---------------------------------------------------------------------------|
|-----------9b--------------------------------------------------------------|
|---11p9h11----11~----------------------------------------------------------|
|---------------------------------------------------------------------------|
|---------------------------------------------------------------------------|
|
|
|
|Fill 10 (3:17):
|---------------------------------------------------------------------------|
|---------------------------------------------------------------------------|
|---16/19-19-19-19-19-19-19-19-19-19-16-19~---16h19-16~---------------------|
|---------------------------------------------------------------------------|
|---------------------------------------------------------------------------|
|---------------------------------------------------------------------------|
|
|---------------------------------------------------------------------------|
|---------------------------------------17---17---17---17---17~-------------|
|---------------16-----------16~----19----19---19---19---19-----------------|
|---------17-19-----------17------------------------------------------------|
|---17h19-----------17h19---------------------------------------------------|
|---------------------------------------------------------------------------|
|
|---------------------------------------------------------------------------|
|---------17-----17-----17-17b19-17-----------------------------------------|
|---16h19---16h19--16h19-------------16h19-16h19p16-------------------------|
|----------------------------------------------------16h19-16----16---------|
|-------------------------------------------------------------19------------|
|---------------------------------------------------------------------------|
|
|---------------------------------------------------------------------------|
|---------------------------------------------------------------------------|
|---------------------------------------------------------------------------|
|---17-19b--17----------------------------17b-19b-17------------------------|
|--------------19~-----------17h19--17h19-----------19-17-------------------|
|---------------------------------------------------------------------------|
|
|
|
|Fill 11 (3:43):
|---------------------------------------------------------------------------|
|---------------------------------------------------------------------------|
|---15-------12-------------------------------------------------------------|
|---18-15----15--13h15----15h18h15---13-------------------------------------|
|---------------------------------------15----------------------------------|
|---------------------------------------------------------------------------|
|
|
|
|Fill 12 (3:53):
|---------------------------------------------------------------------------|
|---8-----------------------------------------------------------------------|
|---11b---------------------------------------------------------------------|
|---------------------------------------------------------------------------|
|---------------------------------------------------------------------------|
|---------------------------------------------------------------------------|
|
|
|
|Fill 13 (4:01 & 4:05 & 4:10):
|---------------------------------------------------------------------------|
|---------------------------------------------------------------------------|
|-----------9b--------------------------------------------------------------|
|---11p9h11----11~----------------------------------------------------------|
|---------------------------------------------------------------------------|
|---------------------------------------------------------------------------|
|
|
|
|Fill 14 (4:13):
|---------------------------------------------------------------------------|
|---17-14----17b------------------------------------------------------------|
|---------16----------------------------------------------------------------|
|---------------------------------------------------------------------------|
|---------------------------------------------------------------------------|
|---------------------------------------------------------------------------|
|
|
|
|Fill 15 (4:26):
|---------------------------------------------------------------------------|
|---17--15--18--15----------------------------------------------------------|
|---16--16--16--16----------------------------------------------------------|
|---xx--xx--xx--xx----------------------------------------------------------|
|---14--14--14--14----------------------------------------------------------|
|---------------------------------------------------------------------------|
|
|
|
|Fill 16 (4:32):
|---------------------------------------------------------------------------|
|---15-17--15--15h17--------------------------------------------------------|
|-------------------15-17-15------------------------------------------------|
|----------------------------17-15x-----------------------------------------|
|---------------------------------------------------------------------------|
|---------------------------------------------------------------------------|
|
|
|
|Fill 17 (4:46):
|---------------------------------------------------------------------------|
|---15-17----15--15-17~---------9~------------------------------------------|
|--------------17--------11p9h11--11~---------------------------------------|
|---------------------------------------------------------------------------|
|---------------------------------------------------------------------------|
|---------------------------------------------------------------------------|
|
|
|
|End on:
|---------------16----------------------------------------------------------|
|---17--15--18--xx----------------------------------------------------------|
|---16--16--16--16----------------------------------------------------------|
|---xx--xx--xx--xx----------------------------------------------------------|
|---14--14--14--14----------------------------------------------------------|
|---------------------------------------------------------------------------|
|
|
|
+
Tap to rate this tab
 
# A B C D E F G H I J K L M N O P Q R S T U V W X Y Z