Guitaretab - guitar tabs
Song name
# A B C D E F G H I J K L M N O P Q R S T U V W X Y Z

Queens Of The Stone Age - I Wanna Make It Wit Chu tab

Queens of the Stone Age  Make it Wit Chu

As heard on Era Vulgaris
Tabbed by: AD57

Tuning: Standard

Im pretty sure this is how Josh plays it.
Use a nice vintage, treble-y tone.


e|----------------------------------------10b------------------------------|
B|---8-10-10-10-10-10-8-10-8~~---8-10---8-----10b----8-10b-8-10------------|
G|------------------------------------9-------------------------9~~-7-9b~~-|
D|-------------------------------------------------------------------------|
A|-------------------------------------------------------------------------|
E|-------------------------------------------------------------------------|

e|-------------------------------------------------------------------------|
B|-------------------------------------------------------------------------|
G|----9b-7-9---------------------------------------------------------------|
D|-------------5-7-7brp5---5-----------7b-7b-5---7p5---5---------5---7-5---|
A|-----------7-----------7-------5-7-----------------7---7---5-7-----------|
E|-------------------------------------------------------------------------|
[ Tab from: http://www.guitaretab.com/q/queens-of-the-stone-age/184186.html ]
e|-------------------------------------------------------------------------|
B|---------------------------------------------------8---------------------|
G|-------------------------7-9---------------7---7-9-----9-9b-9~~~---------|
D|--7b-5-7---5-------5-7s9-----7s5-7---5-7s9---9---------------------------|
A|---------7---7-5-7-----------------7-------------------------------------|
E|-------------------------------------------------------------------------|

e|-------------------------------------------------------------------------|
B|--7h8p7---7--------------------------------------------------------------|
G|--------9---9-7~---9p7---7~----------------------------------------------|
D|-----------------------9-----7s5-7s9~------------------------------------|
A|--------------------------------------7p5h7~---5-7----/7-----------------|
E|----------------------------------------------------3--------------------|

e|---------------------7-10--------7------7--------------------------------|
B|-------------------8------8------10b11-10b12~~-----10b--10-8-10---8~-----|
G|-----------------9----------9~~------------------9--------------9---9~---|
D|--(5)------5-9~----------------------------------------------------------|
A|-----(7)-7---------------------------------------------------------------|
E|-------------------------------------------------------------------------|

e|-------------------------------------------------------------------------|
B|--10-----10-----10-------------------------------------------------------|
G|-----9~~----9~~----9~~---------------------------------------------------|
D|-------------------------------------------------------------------------|
A|-------------------------------------------------------------------------|
E|-------------------------------------------------------------------------|

| /  slide up
| \  slide down
| h  hammer-on
| p  pull-off
| ~  vibrato
| +  harmonic
| x  Mute note
Related for I Wanna Make It Wit Chu tab