Song name
# A B C D E F G H I J K L M N O P Q R S T U V W X Y Z

Queens Of The Stone Age - Avon tab

well its not perfet but it sounds good the song is tunned 2 tunes down 

|------------------------------------------------------------------------|
|------------------------------------------------------------------------|
|--/16-14------------14-16/17~--16-14-14~--14-16-14-14~--14-16-17-16-16~-|
|--------14--------14----------------------------------------------------|
|----------14~---14------------------------------------------------------|
|------------------------------------------------------------------------|


|-----------------------------------------|
|--------------------------------22-------|
|-16-19-17-17~---19-21-19-19~--19--19-----|
|------------------------------------19~--|
|-----------------------------------------|
|-----------------------------------------|

~ = vivrato
/ = slide
Tap to rate this tab
# A B C D E F G H I J K L M N O P Q R S T U V W X Y Z