Song name
# A B C D E F G H I J K L M N O P Q R S T U V W X Y Z

Queens Of The Stone Age - Avon tab

c -----------------------------------------------------------|
G -----------------------------------------------------------|
D#--14/16----------------17-14-16-14-14-14-14-14-14-16-14-14-|
A#--------16-------17----------------------------------------|
F -----------14-15----15-------------------------------------|
C -----------------------------------------------------------|


c --------------------------------------------------------17-|
G -----------------------------15----15-15-17-15-15-15-15----|
D#--16-16-16-16-17-16-16-14-16----17-------------------------|
A#-----------------------------------------------------------|
F -----------------------------------------------------------|
C -----------------------------------------------------------|

c -----------------------------------------------------------|
G --15-------------------------------------------------------|
D#-----14----------------------------------------------------|
A#-----------------------------------------------------------|
F -----------------------------------------------------------|
C -----------------------------------------------------------|


This is probably a pretty simplified version, but I think most of the notes are right.
Tap to rate this tab
# A B C D E F G H I J K L M N O P Q R S T U V W X Y Z