Song name
# A B C D E F G H I J K L M N O P Q R S T U V W X Y Z

Queens Of The Stone Age - Sick Sick Sick tab

Queens of the Stone Age - Sick Sick Sick

Tabbed By: Mark DiFranco

Tuning - C F Bb Eb G C


Intro:
 C|-------------------------------------------------------------------| 
 G|-------------------------------------------------------------------|
Eb|-------------------------------------------------------------------| 
Bb|---16--16--16--16--16--16--16--16--16--16--16--16--16--16--16--16--|
 F|---17--17--17--17--17--17--17--17--17--17--17--17--17--17--17--17--| 
 C|---0---0---0---0---0---0---0---0---0---0---0---0---0---0---0---0---|


Chorus:
 C|-------------------------------------------------------------------| 
 G|-------------------------------------------------------------------|
Eb|-------------------------------------------------------------------| 
Bb|---16--16--------16-16~---16--16----------16-16\-------------------|
 F|---17--17--17-19----------17--17--1717-19--------------------------| 
 C|---0---0------------------0---0------------------------------------|


Other Riff:
 C|-------------------------------------------------------------------| 
 G|-------------------------------------------------------------------|
Eb|-------------------------------------------------------------------| 
Bb|-------------------------------------------------------------------|
 F|-------------------------------------------------------------------| 
 C|---10-0-10-0-12-0-12\10-12-10\7-14-14-0----------------------------|


Interlude:
 C|-------------------------------------------------------------------| 
 G|---14br----------15br----------------------------------------------|
Eb|-------12-------------12-------------------------------------------| 
Bb|----------14~------------11~---------------------------------------|
 F|-------------------------------------------------------------------| 
 C|-------------------------------------------------------------------|
		[just screw around with these notes]
Tap to rate this tab
# A B C D E F G H I J K L M N O P Q R S T U V W X Y Z