Guitaretab - guitar tabs
Song name
# A B C D E F G H I J K L M N O P Q R S T U V W X Y Z

Queens Of The Stone Age - No One Knows tab

intro

E-------------------
B-------------------
G--9---9---9---9----
D--9---9---9---9----
A--7---7---7---7----
E----------------7/-

main riff

E-----------------|--------|                                    |----7bend----|
B--10--10-8-8---10|-10-8-8-|                                    |----7bend----|
G--x---x--x-9---x-|-x--x-9-|                                    |----7bend----|
D--9---9--9-9---9-|-9--9-9-|  x4                                |-------------|
A--7---7--7-7---7-|-7--7-7-|                                    |-------------|
E-----------------|--------|                                    |-------------|
                   \      /                                      \           /
               on the 4th time dont do this part just do the 1st chord then do this

verse

    /  play this x4 \
E--|-----------------|-------------------------------------
B--|-----------------|-------------------------------------
G--|-8-8-8-8-8-8-8-8-|-7-7-7-7-7-7-7-7-8-8-8-8-8-8-8-8----- 
D--|-9-9-9-9-9-9-9-9-|-8-8-8-8-8-8-8-8-9-9-9-9-9-9-9-9-----  between each verse play the
A--|-9-9-9-9-9-9-9-9-|-8-8-8-8-8-8-8-8-9-9-9-9-9-9-9-9-----  main riff.
E--|-7-7-7-7-7-7-7-7-|-6-6-6-6-6-6-6-6-7-7-7-7-7-7-7-7-----

chorus

E--------------------------------------------------
B--------------------------------------------------
G--9--11--12--11---14--12--16--14------------------
D----------------------------------9-9-9-9-9-9-9-9-
A--7--9---10--9----12--10--14--12--9-9-9-9-9-9-9-9-
E----------------------------------7-7-7-7-7-7-7-7-

E--------------------------------------------------
B--------------------------------------------------
G--9--11--12--11---14--12--16--14------------------
D----------------------------------9-9-9-9-9-9-9-9-
A--7--9---10--9----12--10--14--12--9-9-9-9-9-9-9-9-
E----------------------------------7-7-7-7-7-7-7-7-

E------------------------------------------------
B------------------------------------------------
G--12--11--9--7---9--11--12--11------------------
D--------------------------------9-9-9-9-9-9-9-9-
A--10--9---7--5---7--9---10--9---9-9-9-9-9-9-9-9-
E--------------------------------7-7-7-7-7-7-7-7-

E--------------------------------------------------
B--------------------------------------------------
G--9--11--12--11---14--12--16--14------------------
D----------------------------------9-9-9-9-9-9-9-9-
A--7--9---10--9----12--10--14--12--9-9-9-9-9-9-9-9-
E----------------------------------7-7-7-7-7-7-7-7-

bridge

E--------------------------|------------|
B--------------------------|------------|
G--9-9-9-9-9-9-9-9-9-9-9-9-|------8-----|
D--9-9-9-9-9-9-9-9-9-9-9-9-|-9-10-8-9-7-|  x2
A--7-7-7-7-7-7-7-7-7-7-7-7-|-9-10-6-9-7-|
E--0-0-0-0-0-0-0-0-0-0-0-0-|-7-8----7-5-|
                            \          /
     on the second time playing this repeat this bit 4 times

then comes the solo but i couldnt figure it out but anyway hope you enjoy what i did figure out.
[ Tab from: http://www.guitaretab.com/q/queens-of-the-stone-age/24428.html ]
Related for No One Knows tab
×
No One Knows