Song name
# A B C D E F G H I J K L M N O P Q R S T U V W X Y Z

Queens Of The Stone Age - You Would Know tab

Intro and verse riff

Guitar 1

e|----------------------|
B|----------------------|
G|----------------------|
D|---------------8~ ----|
A|-----8----6-----------|
E|---6----7-------------|

Guitar 2
Don't forget...          Cut....     
e|----------------------|----------------------|
B|------9--7--9--6~ ----|-9b----7b----9b~ -----|
G|---7------------------|----------------------|
D|----------------------|----------------------|
A|----------------------|----------------------|
E|----------------------|----------------------|

  Chorus
     
e|-------------------------------------|
B|-------------------------------------|
G|-------------------------------------|
D|-------------------------------------|
A|-------6---------8-----------3----3--|
E|---7----7----9----9------4----4----4-|


Outro
Guitars 1&2                              
e|----------------------------------------|----------------|
B|----------------------------------------|----9-7-9-6~ ---|<-Guitar 2
G|----------------------------------------|--7-------------| 
D|----------------------------------------|----------8~ ---|<-|
A|-------3---------8---------8---------5--|----8---6-------|  |=Guitar 1
E|---4----4----9----9----7----7----6----6-|--6---7---------|<-|
Tap to rate this tab
 
# A B C D E F G H I J K L M N O P Q R S T U V W X Y Z