Song name
# A B C D E F G H I J K L M N O P Q R S T U V W X Y Z

Queens Of The Stone Age - Hispanic Impressions tab

-------------------------------------------------------------------------------
			     Queens of the Stone Age - Hispanic Impressions
-------------------------------------------------------------------------------
Tabbed by: BananaFromMars
Email: BananaFromMars@gmail.com

Tuning: C Standard (C F Bb Eb G C)

This is how I play 'Hispanic Impressions' by Queens of the Stone Age.
If you have any questions or suggestions, please feel free to ask/comment!

Please don't copy this tab to any other website without my permission, thanks!

v = vibrato
b = bend

|---------------------------------------------------------------------------|
|---------------------------------------------------------------------------|
|---------------------------------------------------------------------------|
|---------------------------------------------------------------------------|
|--------------10-10-10-10-10-10-------------10-10-10-10-10-10--------------|
|--9-9-9-9-9-9-------------------9-9-9-9-9-9--------------------------------|

|---------------------------------------------------------------------------|
|---------------------------------------------------------------------------|
|---------------------------------------------------------------------------|
|-----9-7-7v------9-7-7v----------------------------------------------------|
|-0-0---------0-0----------------10-10-10-----------------------------------|
|--------------------------9-9-9--------------------------------------------|

|---------------------------------------------------------------------------|
|---------------------------------------------------------------------------|
|---------------------------------------------------------------------------|
|-----9-7-7v-----9-7-7v------9-7-7v-----------------------------------------|
|-0-0--------0-0---------0-0---------------------10-10-10-10-10-10----------|
|------------------------------------9-9-9-9-9-9----------------------------|

|---------------------------------------------------------------------------|
|---------------------------------------------------------------------------|
|---------------------------------------------------------------------------|
|-----9-7-7v-----9-11----9--------------------------------------------------|
|-0-0--------0-0------11----------10-10-10----------------------------------|
|---------------------------9-9-9-------------------------------------------|

|---------------------------------------------------------------------------|
|---------------------------------------------------------------------------|
|---------------------------------------------------------------------------|
|-----9-7-7v-----9-11----9-------9-11----9----------------------------------|
|-0-0--------0-0------11-----0-0------11----------------10-10-10-10-10-10---|
|-------------------------------------------9-9-9-9-9-9---------------------|

|---------------------------------------------------------------------------|
|---------------------------------------------------------------------------|
|---------------------------------------------------------------------------|
|-----9-7-7v-----9-7-7v-----------------------------------------------------|
|-0-0--------0-0--------------10-10-10--------------------------------------|
|-----------------------9-9-9-----------------------------------------------|

|---------------------------------------------------------------------------|
|---------------------------------------------------------------------------|
|----------------9-11----9-------9/11-12-12v--------------------------------|
|-----9-7-7v----------11------11--------------------------------------------|
|-0-0--------0-0------------0-----------------------------10-10-10-10-10-10-|
|---------------------------------------------9-9-9-9-9-9-------------------|

|---------------------------------------------------------------------------|
|---------------------------------------------------------------------------|
|---------------------------------------------------------------------------|
|-----9-7-7v-----9-7-7v-----------------------------------------------------|
|-0-0--------0-0----------------10-10-10------------------------------------|
|-------------------------9-9-9---------------------------------------------|

|---------------------------------------------------------------------------|
|---------------------------------------------------------------------------|
|---------------------------------------------------------------------------|
|-----9-7-7v-----9-7-7v-----9-7-7v------------------------------------------|
|-0-0--------0-0--------0-0-------------------------------------------------|
|---------------------------------------------------------------------------|

|---------------------------------------------------------------------------|
|---------------------------------------------------------------------------|
|---------------------------------------------------------------------------|
|---------------------------------------------------------------------------|
|-------------10-10-10-10-10-10-------------10-10-10-10-10-10---------------|
|-9-9-9-9-9-9-------------------9-9-9-9-9-9---------------------------------|

|---------------------------------------------------------------------------|
|---------------------------------------------------------------------------|
|---------------------------------------------------------------------------|
|---------------------------------------------------------------------------|
|-10*-6*-10*-6*-10*-10*-10*-13*----------x5---------------------------------|
|---------------------------------------------------------------------------|
* = bend each note slightly and then release the string to 0
after playing this 5 times, the solo comes in!

|----12----9----12----9----12----12----12----14-----------------------------|
|---------------------------------------------------------------------------|
|-11----11---11----11---11----11----11----11--------------------------------|
|---------------------------------------------------------------------------|
|---------------------------------------------------------------------------|
|---------------------------------------------------------------------------|

|-12p-9------12p-9------12p-9------12p-9------------------------------------|
|-------11h--------11h--------11h--------11h--------------------------------|
|---------------------------------------------------------------------------|
|---------------------------------------------------------------------------|
|---------------------------------------------------------------------------|
|---------------------------------------------------------------------------|

|-15p-12------15p-12------15p-12------18------------------------------------|
|--------14h---------14h---------14h----------------------------------------|
|---------------------------------------------------------------------------|
|---------------------------------------------------------------------------|
|---------------------------------------------------------------------------|
|---------------------------------------------------------------------------|

|---------------------------------------------------------------------------|
|---------------------------------------------------------------------------|
|---------------------------------------------------------------------------|
|---------------------------------------------------------------------------|
|-10*-6*-10*-6*-10*-10*-10*-13*---------------------------------------------|
|---------------------------------------------------------------------------|

|---------------------------------------------------------------------------|
|---------------------------------------------------------------------------|
|---------------------------------------------------------------------------|
|-----9-7-7v-----9-7-7v-----------------------------------------------------|
|-0-0--------0-0----------------10-10-10------------------------------------|
|-------------------------9-9-9---------------------------------------------|

|---------------------------------------------------------------------------|
|---------------------------------------------------------------------------|
|---------------------------------------------------------------------------|
|-----9-7-7v-----9-11----9--------9-7-7v------------------------------------|
|-0-0--------0-0------12------0-0--------------------10-10-10-10-10-10------|
|----------------------------------------9-9-9-9-9-9------------------------|

|---------------------------------------------------------------------------|
|---------------------------------------------------------------------------|
|----------------9----------------------------------------------------------|
|-----9-7-7v-------11-11v---------------------------------------------------|
|-0-0--------0-0-----------------10-10-10-----------------------------------|
|--------------------------9-9-9--------------------------------------------|

|---------------------------------------------------------------------------|
|---------------------------------------------------------------------------|
|-----------------9-11----9------9-11-12-12v--------------------------------|
|-----9-7-7v-----------11-----11--------------------------------------------|
|-0-0---------0-0-----------0-----------------------------------------------|
|---------------------------------------------------------------------------|

|---------------------------------------------------------------------------|
|---------------------------------------------------------------------------|
|---------------------------------------------------------------------------|
|---------------------------------------------------------------------------|
|--------------10-10-10-10-10-10--------------------------------------------|
|-9-9-9-9-9-9---------------------------------------------------------------|

|---------------------------------------------------------------------------|
|---------------------------------------------------------------------------|
|---------------------------------------------------------------------------|
|-----9-7-7v------9-7-7v----------------------------------------------------|
|-0-0---------0-0---------------10-10-10------------------------------------|
|-------------------------9-9-9---------------------------------------------|

|---------------------------------------------------------------------------|
|---------------------------------------------------------------------------|
|---------------------------------------------------------------------------|
|-----9-7-7v------9-11----9-----------9-------------------------------------|
|-0-0---------0-0------11----0-0-9-11---11---------------10-10-10-10-10-10--|
|-------------------------------------------9-9-9-9-9-9---------------------|

|---------------------------------------------------------------------------|
|---------------------------------------------------------------------------|
|---------------------------------------------------------------------------|
|-----9-7-7v------9-11----9-------------------------------------------------|
|-0-0---------0-0------11----------10-10-10---------------------------------|
|----------------------------9-9-9------------------------------------------|

|---------------------------------------------------------------------------|
|---------------------------------------------------------------------------|
|---------------------------------------------------------------------------|
|-----9-7-7v------------9--------------9------------------------------------|
|-0-0---------0-0--9-11---11--0-0-9-11---11---------------------------------|
|---------------------------------------------------------------------------|

|---------------------------------------------------------------------------|
|---------------------------------------------------------------------------|
|---------------------------------------------------------------------------|
|---------------------------------------------------------------------------|
|-------------10-10-10-10-10-10-------------10-10-10-10-10-10---------------|
|-9-9-9-9-9-9-------------------9-9-9-9-9-9---------------------------------|

PAUSE!

|---------------------------------------------------------------------------|
|---------------------------------------------------------------------------|
|---------------------------------------------------------------------------|
|---------------------------------------------------------------------------|
|-10*-6*-10*-6*-10*-10*-10*-13*---------------------------------------------|
|---------------------------------------------------------------------------|

|---------------------------------------------------------------------------|
|---------------------------------------------------------------------------|
|---------------------------------------------------------------------------|
|---------------------------------------------------------------------------|
|-10*-6*-10*-6*-10*-10*-10*-13*---------------------------------------------|
|---------------------------------------------------------------------------|

|----12----9----12----9----12p-9-----12p-9-----12p-9-----9------------------|
|--------------------------------11h-------11h-------11h--------------------|
|-11----11---11----11---11--------------------------------------------------|
|---------------------------------------------------------------------------|
|---------------------------------------------------------------------------|
|---------------------------------------------------------------------------|

|---------------------------------------------------------------------------|
|---------------------------------------------------------------------------|
|---------------------------------------------------------------------------|
|---------------------------------------------------------------------------|
|-10*-6*-10*-6*-10*-10*-10*-13*---------------------------------------------|
|---------------------------------------------------------------------------|

|---------------------------------------------------------------------------|
|---------------------------------------------------------------------------|
|---------------------------------------------------------------------------|
|---------------------------------------------------------------------------|
|-0-0-11-12-11--0--11-12-11-12-11---0-0-9-10-9--0--9-10-9-10-9--------------|
|---------------------------------------------------------------------------|

|---------------------------------------------------------------------------|
|---------------------------------------------------------------------------|
|---------------------------------------------------------------------------|
|---------------------------------------------------------------------------|
|-0-0-11-12-11--0--11-12-11-12-11---0-0-9-10-9--0--9-10-9-10-9--------------|
|---------------------------------------------------------------------------|

THE SOLO!
Really hard to hear, there's too much going on in the song to get it a 100% accurate, 
but I think this is a good start!

|---------------------------------------------------------------------------|
|---------------------------------------------------------------------------|
|-9v----9-11----9--------9-11-12-12-12v--9-11-------------------------------|
|------------11-------11----------------------11----------------------------|
|---------------------------------------------------------------------------|
|---------------------------------------------------------------------------|

|---------------------------------------------------------------------------|
|----10-12-13-13-13v--13-14h-13p-10-12-10p----10----------------------------|
|-11---------------------------------------9h-------------------------------|
|---------------------------------------------------------------------------|
|---------------------------------------------------------------------------|
|---------------------------------------------------------------------------|

|---------------------------------------------------------------------------|
|------10-------------------------------------------------------------------|
|-9-11----11---9------------------------------------------------------------|
|------------9---11-9-----------------------------------14-17-17v-----------|
|---------------------12--------12-14-15-14-12----14-16---------------------|
|-------------------------12-14----------------12---------------------------|

|---------------------------------------------------------------------------|
|---------------------------------------------------------------------------|
|------------14-14----------------------------------------------------------|
|--14-16-----------14-14-16-14----------14----------------------------------|
|--------16--------------------16-15-14----16-15-14-12-14-12----------------|
|---------------------------------------------------------------------------|

|---------------------------------------------------------------------------|
|---------------------------------------------------------------------------|
|---------------------------------------------------------------------------|
|-----9-7-7v------9-7-7v----------------------------------------------------|
|-0-0---------0-0---------------10-10-10------------------------------------|
|-------------------------9-9-9---------------------------------------------|

|---------------------------------------------------------------------------|
|---------------------------------------------------------------------------|
|---------------------------------------------------------------------------|
|-----9-7-7v------9-11----9------9-11-11v-----------------------------------|
|-0-0---------0-0------12----0-0-----------------------10-10-10-10-10-10----|
|------------------------------------------9-9-9-9-9-9----------------------|

|---------------------------------------------------------------------------|
|---------------------------------------------------------------------------|
|---------------------------------------------------------------------------|
|-----9-7-7v------9-7-7v----------------------------------------------------|
|-0-0---------0-0---------------10-10-10------------------------------------|
|-------------------------9-9-9---------------------------------------------|

|---------------------------------------------------------------------------|
|---------------------------------------------------------------------------|
|----------------9-11----9-----9-11-12-12v----------------------------------|
|-----9-7-7v----------11----------------------------------------------------|
|-0-0--------0-0-----------0-0----------------------------------------------|
|---------------------------------------------------------------------------|

|---------------------------------------------------------------------------|
|---------------------------------------------------------------------------|
|---------------------------------------------------------------------------|
|---------------------------------------------------------------------------|
|-------------10-10-10-10-10-10-------------10-10-10-10-10-10---------------|
|-9-9-9-9-9-9-------------------9-9-9-9-9-9---------------------------------|

That's it!
Tap to rate this tab
# A B C D E F G H I J K L M N O P Q R S T U V W X Y Z