Song name
# A B C D E F G H I J K L M N O P Q R S T U V W X Y Z

Queens Of The Stone Age - Suture Up Your Future Acoustic tab

Hi! I saw the request for this song as an 
acoustic tab at the UG pagesome days ago. 
Since i am, and always has been a big fan
of Qotsa, it would be an honour to tab it. 
Hope you enjoy. While you learn from this tab
i recomend you to search Queens of the stone 
age - suture up your future (acoustic)on youtube 
and lissen to that while you play!

Tuning: Standard E   EADGBe

The acoustic guitar (and the lead guitar) 
starts first at 0:40 in the song, wich i supose 
you all know.  Actually there are two acoustic 
guitars that overlaps each other in the song. 

Verse

Guitar 1

|-----------------------------------------------------------X2
|-----------------------------------------------------------|
|-----------------------------------------------------------|
|-7--------9--------------9----------------9--------------9-|
|-------7--------------7---------------7---------------7----|
|----5-----------5--8------------5--8------------5--8-------|

Guitar 2

|-----------------------------X2
|----------4------------------|
|-5--4--5-----5--4--5---------|
|-----------------------------|
|-----------------------------|
|-----------------------------|


Chorus  1:04  Listen to the song to understand the ending

|----------------------------------------------------------X4 1/2
|--------3-3---------3-3--5-------3-3-3-----------3-0------|
|--------4-4---------4-4--4-------4-4-4------4-4--4-4------|
|--4-4---4-4---5-5---4-4----------4-4-4------4-4--4-4------|
|--5-5---------7-7-----------5-5---------5-5---------------|
|----------------------------------------------------------|

Acoustic solo 1:32

|----------------------------------------------------------|
|----------------------------------------------------------|
|----------------------------------------------------------|
|-----------7-------7-------7-7---------------7----7v---9v-|
|-7-------------------------7-7---------3-3----------------|
|-5--8--------8-------8----------8-------------------------|


|----------------------------------------------------------|
|----------------------------------------------------------|
|----------------------------------------------------------|
|---7v---9--9v--7------------------------------------------|
|-----------------10--9----7h9s10---9h10--12---10-9-10-----|
|----------------------------------------------------------|


|----------------------------------------------------------|
|----------------------------------------------------------|
|----------------------------------------------------------|
|----------------------------------------------------------|
|--9s7h9--7-9-9-9b(10)---7-9b(10v)--7-9-(10v)--------------|
|----------------------------------------------------------|


|----------------------------------------------------------|
|----------------------------------------------------------|
|----------------------------------------------------------|
|----------------------------9--7-7--9-9---7-9-10--9-7-9---|
|-9-7----7v------------------x--x-x--x-x---x-x-x---x-x-x---|
|-----10--------8--7-5--7v---7--5-5--7-7---5-7-8---7-5-7---|


|----------------------------------------------------------|
|----------------------------------------------------------|
|----------------------------------------------------------|
|--------2h4----2h4-2-4--5--4-5-5s7--5-4-5v--5p4-----------|
|-----3h5--------------------------------------------------|
|--5h7----------------------------------------------2s4--2-|


That was the solo. Then over to the second verse. The guitar
in the background is still playing the same thing as in the previous
verse. The second guitar on the other hand, a bit different:

|-------------------------------------X7
|-------------------------------------|
|------------4------------------------|
|-----5--4-5----5-4-5-----------------|
|-0----0------0-----------------------|
|-------------------------------------|

Then there is the chorus one more time, you may
switch the previous parts of the chorus
out with anything more "powerfull" if you like... 

And then we come to the ending or autro.

|----------------7-------0--0----0--0----------------------X4
|--3--3-------0--0-------5--5----5--5----------------------|
|--0--0-------0--0-------6--6----6--6----------------------|
|--0--0-------5--5--5h7--7--7----7--7----------------------|
|--3--3--5h7--7--7-------0--0----0--0----------------------|
|----------------------------------------------------------|

Thats it. Hope you made it! Please rate and feel free to comment :)

Tap to rate this tab
# A B C D E F G H I J K L M N O P Q R S T U V W X Y Z