Song name
# A B C D E F G H I J K L M N O P Q R S T U V W X Y Z

Queens Of The Stone Age - You Got A Killer Scene There Man chords

Highlighted       Show chord diagrams
QOTSA - You Got A Killer Scene There Man
========================================
tabbed by: Eric Lambrecht

Basicly the song has just one chord: >Em<

...could be quite boring, 
so you can spice it up a litle bit, if you use some variations and licks like the 
following (for example)..

MAIN-CRD || CRD-VARIATIONS...     || "LICKS"... 
    Em   || Em7 | Em  | Em7 | Em4 ||
e:--(7)--||-(7)-|-(0)-|-----|-----||---------|-------------------|
b:---8---||--8--|-(0)-|--3--|--0--||---------|-X---8-------------|
G:---9---||--7--|--0--|--4--|--2--||-4-3-2-0-|-X---9-------------|yeah and
D:---9---||--9--|--2--|--2--|--2--||-2-2-2-0-|-X---9-------------|so on...
A:---7---||--7--|--2--|--2--|--2--||-2-2-2-0-|-X---7-------------|
E:---0---||-(0)-|--0--|--0--|--0--||---------|---0---0-0-10b^~~~-|

The rythm is also very important !!

Try to strum in this pattern:
e>-------------------------------<
b>-----X-------X-------X-------X-<
D>-----X-------X-------X-------X-<
G>-----X-------X-------X-------X-<
A>-----X-------X-------X-------X-<
E>-X-----X-X-----X---X---X-X-----<


Em
I don't mean to make obscene
    Em
But even the mob, know what the hell i mean
    Em
The knot is tight, on my blindfold
         Em
I got my flesh full of blood, i hate rock n roll

     Em
Some think too much, then come too soon
       Em
I just curse the sun, so i can howl at the moon

eeooohhh... 


Don't wanna love you no more
Don't wanna love you less
I wanna be crushed by your sweet caress
What's the fuckin' difference, we all gonna die
You gonna do something killer?
C'mon give it a try

Got no good plans but a good idea
Let's put this town in my rearview mirror
Yeah, i got enemies, but they don't know
They won't get no glory on that side of the hole

Were are united, by drifting alone
This is the army of none, got no flag, got no home
Just witches & scabs, an awful mess, i confess...
Let's do it again. 

OUTRO:
Em Emsus2 Emsus4 Em
Em Emsus2 Emsus4 Em ...
Tap to rate this tab
 
# A B C D E F G H I J K L M N O P Q R S T U V W X Y Z