Song name
# A B C D E F G H I J K L M N O P Q R S T U V W X Y Z

Queens Of The Stone Age - Im Designer Acoustic tab

I'm Designer
Tuning: Standard

Intro
|-----------------|
|-----------------|
|-4-----5---8-x-x-| x4
|-4-----5---8-x-x-|
|-2-----3---6-x-x-|
|-----------------|

Verse 1
|-----------------|
|-----------------|
|-4-----5---8-x-x-| x8
|-4-----5---8-x-x-|
|-2-----3---6-x-x-|
|-----------------|

|-------------------------------------------------------------------|
|-------------------------------------------------------------------|
|-10--10---8---8-------------------10--10---8---8-------------------|
|-10--10---8---8---9---9---9-7-9-7-10--10---8---8---9---9---9-7-9-7-|
|--8---8---6---6---9---9---9-7-9-7--8---8---6---6---9---9---9-7-9-7-|
|------------------7---7---7-7-7-7------------------7---7---7-7-7-7-|

|---------------------------------------------------|
|--------------------3-------3-------3-------3------|
|-10--10---8---8---4-35-8xx4-35-8xx4-35-8xx4-35-8xx-|
|-10--10---8---8---4--5-8xx4--5-8xx4--5-8xx4--5-8xx-|
|--8---8---6---6---2--3-6xx2--3-6xx2--3-6xx2--3-6xx-|
|---------------------------------------------------|

Verse 2
|-----------------|
|-----------------|
|-4-----5---8-x-x-| x8
|-4-----5---8-x-x-|
|-2-----3---6-x-x-|
|-----------------|

|-------------------------------------------------------------------|
|-------------------------------------------------------------------|
|-10--10---8---8-------------------10--10---8---8-------------------|
|-10--10---8---8---9---9---9-7-9-7-10--10---8---8---9---9---9-7-9-7-|
|--8---8---6---6---9---9---9-7-9-7--8---8---6---6---9---9---9-7-9-7-|
|------------------7---7---7-7-7-7------------------7---7---7-7-7-7-|

|---------------------------------------------------|
|----------------------3----------------3-----------|
|-10--10---8---8---4---3-5---8-x-x--4---3-5---8-x-x-|
|-10--10---8---8---4-----5---8-x-x--4-----5---8-x-x-|
|--8---8---6---6---2-----3---6-x-x--2-----3---6-x-x-|
|---------------------------------------------------|

Chorus
|-------------------------------------------------------------------|
|-------------------------------------------------------------------|
|-4-4444443-3333336-6666665-555555-4-4444443-3333336-6666665-555555-|
|-5-5555554-4444447-7777776-666666-5-5555554-4444447-7777776-666666-|
|-5-5555554-4444447-7777776-666666-5-5555554-4444447-7777776-666666-|
|-3-3333332-2222225-5555554-444444-3-3333332-2222225-5555554-444444-|

|-------------------------------------------------------------------|
|----------------------------------------------------3-------3------|
|-4-4444443-3333336-6666665-555555-4-4444443-3333334-35-8xx4-35-8xx-|
|-5-5555554-4444447-7777776-666666-5-5555554-4444444--5-8xx4--5-8xx-|
|-5-5555554-4444447-7777776-666666-5-5555554-4444442--3-6xx2--3-6xx-|
|-3-3333332-2222225-5555554-444444-3-3333332-222222-----------------|

Solo

(The rhythm is the same as the Verse and you can just freestyle this as long as 
you stay in the correct key)

Interlude
|---------------------------------------------------|
|---------------------------------------------------|
|---------------------------------------------------| x2
|-----9--9-------12----12\7---9--9-------12----12\7-|
|----9--9------12----12------9--9------12----12-----|
|-/7---7--7/10-----10------/7--------10----10-------|

Verse 3
|-----------------|
|-----3-----------|
|-4---3-5---8-x-x-| x12
|-4-----5---8-x-x-|
|-2-----3---6-x-x-|
|-----------------|

|-------------------------------------------------------------------|
|-------------------------------------------------------------------|
|-10--10---8---8-------------------10--10---8---8-------------------|
|-10--10---8---8---9---9---9-7-9-7-10--10---8---8---9---9---9-7-9-7-|
|--8---8---6---6---9---9---9-7-9-7--8---8---6---6---9---9---9-7-9-7-|
|------------------7---7---7-7-7-7------------------7---7---7-7-7-7-|

|---------------------------------------------------|
|----------------------3----------------3-----------|
|-10--10---8---8---4---3-5---8-x-x--4---3-5---8-x-x-|
|-10--10---8---8---4-----5---8-x-x--4-----5---8-x-x-|
|--8---8---6---6---2-----3---6-x-x--2-----3---6-x-x-|
|---------------------------------------------------|

|-------------------------------------------------------------------|
|-------------------------------------------------------------------|
|-10--10---8---8-------------------10--10---8---8-------------------|
|-10--10---8---8---9---9---9-7-9-7-10--10---8---8---9---9---9-7-9-7-|
|--8---8---6---6---9---9---9-7-9-7--8---8---6---6---9---9---9-7-9-7-|
|------------------7---7---7-7-7-7------------------7---7---7-7-7-7-|

|---------------------------------------------------|
|----------------------3----------------3-----------|
|-10--10---8---8---4---3-5---8-x-x--4---3-5---8-x-x-|
|-10--10---8---8---4-----5---8-x-x--4-----5---8-x-x-|
|--8---8---6---6---2-----3---6-x-x--2-----3---6-x-x-|
|---------------------------------------------------|

Interlude 2
|---------------------------------------------------|
|---------------------------------------------------|
|---------------------------------------------------| x2
|-----9--9-------12----12\7---9--9-------12----12\7-|
|----9--9------12----12------9--9------12----12-----|
|-/7---7--7/10-----10------/7-----------------------|

Chorus
|-------------------------------------------------------------------|
|-------------------------------------------------------------------|
|-4-4444443-3333336-6666665-555555-4-4444443-3333336-6666665-555555-|
|-5-5555554-4444447-7777776-666666-5-5555554-4444447-7777776-666666-|
|-5-5555554-4444447-7777776-666666-5-5555554-4444447-7777776-666666-|
|-3-3333332-2222225-5555554-444444-3-3333332-2222225-5555554-444444-|

|---------------------------------------------------------------------|
|----------------------------------------------------3-------3--------|
|-4-4444443-3333336-6666665-555555-4-4444443-3333334-35-8xx4-35-8xx-4-|
|-5-5555554-4444447-7777776-666666-5-5555554-4444444--5-8xx4--5-8xx-4-|
|-5-5555554-4444447-7777776-666666-5-5555554-4444442--3-6xx2--3-6xx-2-|
|-3-3333332-2222225-5555554-444444-3-3333332-222222-------------------|
 
Lyrics:

Verse 1:
My generation's for sale, beats a steady job, how much have you got?
My generation don't trust no one, itís hard to blame, not even ourselves.
The thing that's real for us is fortune and fame, all the rest seems like work.
Itís just like diamonds, in shit.

Verse 2:
I'm high class I'm a whore, actually both, basically I'm a pro,
We've all got our own style, of baggage, why hump it yourself,
You've made me an offer that I can refuse, course either way I get screwed
Counter proposal, I go home & jerk off.

Chorus:
It's truly a lie, I'm counterfeit myself,
It's truly a lie, I'm counterfeit myself,
You don't own, you don't own, you don't own, you donít own
You don't own what none can buy, you don't own, neither do I.

Interlude:
High and mighty, you say selling out is a sham, is that the name of your book?
Push a silver spoon in your ass, there is no more holding us down.
(dog. down mutt. Nice mutt)

Verse 3:
You're insulted, you can't be bought or sold, translation offer too low.
You don't know what you're worth, it isn't much, my pianoís for sale.
How many times must I sell myself before my pieces are gone?
I'm one of a kind, I'm designer.
Never again will I repeat myself, enough is never enough,
Never again will I repeat myself.

Interlude 2:
It used to be the plan was screwing the man, now itís have sex with a man,
After he buys you dot com for sale at a low, low price

Chorus:
It's truly a lie, I'm counterfeit myself,
It's truly a lie, I'm counterfeit myself,
You don't own, you don't own, you don't own, you donít own
You don't own what none can buy, you don't own, neither do I.
Tap to rate this tab
# A B C D E F G H I J K L M N O P Q R S T U V W X Y Z