Song name
# A B C D E F G H I J K L M N O P Q R S T U V W X Y Z

Queens Of The Stone Age - Quick And To The Pointless tab

QUICK AND TO THE POINTLESS-QUEENS OF THE STONE AGE-RATED R
Tabbed by:Frusciante_50
Standard tuning

Note:

Intro/verse:
e|-------------------------------------------------------------------------|
B|-------------------------------------------------------------------------|
G|-------------------------------------------------------------------------|
D|-2--2--3--3--3--3--3--3--------------------------------------------------|
A|-2--2--3--3--3--3--3--3--------------------------------------------------|
E|-0--0--1--1--1--1--1--1--------------------------------------------------|

Chorus:
e|-------------------------------------------------------------------------|
B|-------------------------------------------------------------------------|
G|-------------------------------------------------------------------------|
D|-5-5-5-5-5-5-5-5-5-5-5-5-5-5-5----4-4-4-4-4-4-4-4-4-4-4-4-4-4-4-4--------|
A|-5-5-5-5-5-5-5-5-5-5-5-5-5-5-5----4-4-4-4-4-4-4-4-4-4-4-4-4-4-4-4--------|
E|-3-3-3-3-3-3-3-3-3-3-3-3-3-3-3----2-2-2-2-2-2-2-2-2-2-2-2-2-2-2-2--------|

e|-------------------------------------------------------------------------|
B|-------------------------------------------------------------------------|
G|-------------------------------------------------------------------------|
D|-2---3-3-3-3-3-----2---3-3-3-3-3-----2---3-3-3-3-3-----2---3-3-3-3-3-----|
A|-2---3-3-3-3-3-----2---3-3-3-3-3-----2---3-3-3-3-3-----2---3-3-3-3-3-----|
E|-0---1-1-1-1-1-----0---1-1-1-1-1-----0---1-1-1-1-1-----0---1-1-1-1-1-----|

During verse 2, mute the F power chords

Thats all the riffs, pretty simple

ENJOY!
Tap to rate this tab
 
# A B C D E F G H I J K L M N O P Q R S T U V W X Y Z