Song name
# A B C D E F G H I J K L M N O P Q R S T U V W X Y Z

Queens Of The Stone Age - I Was A Teenage Hand Model tab

QUEENS OF THE STONE AGE - I Was A Teenage Hand Model
Tabbed by NzT


Verse Riff
e |-------------------------------------------------------------------|
B |-------------------------------------------------------------------|
G |-------------------------------------------------------------------| 
D |-------------------------------------------------------------------|
A |-3-3-3-3-3-3-3---------------------5-5-5-5-5-5-5-3-3-3-3-3-3-3-3-3-|
E |---------------5-5-5-5-5-5-5-5-5-5---------------------------------|


Chorus Riff
e |--------------------------------------------------------------------|
B |--------------------------------------------------------------------|
G |--------------------------------------------------------12-------12-|
D |-14-14-12h14-14-12-10b11-----12b14-10h12~----10~--12s14----12s14----|
A |-------------------------12~----------------------------------------|
E |--------------------------------------------------------------------|


...or for the C-standard purists...


Verse Riff
C |-------------------------------------------------------------------|
G |-------------------------------------------------------------------|
D#|-------------------------------------------------------------------|
A#|-2-2-2-2-2-2-2-----------------------------------2-2-2-2-2-2-2-2-2-|
F |---------------4-4-4-4-4-4-4-4-4-4---------------------------------|
C |-----------------------------------2-2-2-2-2-2-2-------------------|


Chorus Riff
C |-----------------------------------------------------------------|
G |-----------------------------------------------------12-------12-|
D#|-13-13-11h13-13-11-9b10-----11b13-9h11~----9~--11s13----11s13----|
A#|------------------------11~--------------------------------------|
F |-----------------------------------------------------------------|
C |-----------------------------------------------------------------|


Solo is in C major pentatonic/A minor pentatonic.
Tap to rate this tab
# A B C D E F G H I J K L M N O P Q R S T U V W X Y Z