Song name
# A B C D E F G H I J K L M N O P Q R S T U V W X Y Z

Queens Of The Stone Age - Regular John tab

Help us improve GuitareTab! Take a short survey!
-------------------------------------------------------------------------------
			     REGULAR JOHN - Queens of the Stone Age
-------------------------------------------------------------------------------
Tabbed by: Willow
Email: wil_low@hotmail.it
 
--------------

INTRO
guitar 1:

e|------------------|     |------------------|
B|------------------|     |------------------|
G|------------------|only |------------------|
D|-1010101010101010-|gtr  |-1010101010101010-|
A|-1010101010101010-| 1   |-1010101010101010-|
E|-8 8 8 8 8 8 8 8--|(x2) |-8 8 8 8 8 8 8 8--| (x4)

                         guitar 2: (instead violin)
                         e|------------------|
                         B|--11--4--10--15---|
                         G|------------------|
                         D|------------------|
                         A|------------------|
                         E|------------------| (x4)

--------------

guitar 1 + 2:  
e|-------------------|
B|-------------------|
G|-------------------|
D|-1010101010101010--|
A|-1010101010101010--|
E|-8 8 8 8 8 8 8 8---| (x8)

                          guitar 2:  (*)
                          e|-------------------------------|
                          B|-------------------------------|
                          G|-------------------------------|
                          D|-------------------------------|
                          A|-10101010131313-10101010121212-|
                          E|-8 8 8 8 111111-8 8 8 8 101010-| (x4)


guitar 1 + 2 continue:
e|-------------------|
B|-------------------|
G|-------------------|
D|-1010101010101010--|
A|-1010101010101010--|
E|-8 8 8 8 8 8 8 8---| (x4)


----------------

VERSE
guitar 1:
e|-------------------|
B|-------------------|
G|-------------------|
D|-1010101010101010--|
A|-1010101010101010--|
E|-8 8 8 8 8 8 8 8---| (x4)

                         guitar 2:
                         e|---------------------|
                         B|---------------------|
                         G|---------------------|
                         D|-33 55 6666 8888888--|
                         A|-33 55 6666 8888888--|
                         E|-11 33 4444 6666666--|  ---> play VERSE x4

------------------

CHORUS

open up your eyes...

guitar 1:
e|--------------------------|          e|---------|
B|--------------------------|          B|---------|
G|-888888888--------555-----|          G|-88 -----|
D|-888888888 8 5 5x 555-----|          D|-88 10---|
A|-666666666 8 5 5x 333-----|          A|-66 10---|
E|---------- 6 3 0x --------| (x3)     E|----8----|


guitar 2 (solo 1) on CHORUS:
e|-------------------------------------------------------|
B|-------------------------------------------------------|
G|-------------------------------------------------------|
D|-------------8-10-8-h10p8----8-10-10-10h12-10h12-10h12-|
A|------8-9-10--------------10---------------------------|
E|-8-11--------------------------------------------------|

e|----------------------------|
B|----------------------------|
G|----------------------------|
D|-10h12-10hb12\10-8-5-8-8\5--|
A|----------------------------|
E|----------------------------|

-------------------------

| pause x 4 bars

-------------------------

| repeat from (*) to whole CHORUS

guitar 2 (solo 2) on CHORUS:
e|--------------------------------------------------------|
B|-13h11 13h11 13h11 13h11 13h11-------13h11 13h11 13h11--|
G|--------------------------------------------------------|
D|-------------------------------13-10--------------------|
A|--------------------------------------------------------|
E|--------------------------------------------------------|

e|----------------------------|
B|-13h11 13h11----------------|
G|----------------------------|
D|-------------13-10-13-13\10-|
A|----------------------------|
E|----------------------------|

-------------------------

| pause x 4 bars

-------------------------

guitar 1:
e|-------------------|
B|--8---8---8---8----|
G|-------------------|
D|-------------------|
A|-------------------|
E|-------------------| (x8)

                                guitar 2: (instead violin)
e|-------------------|          e|-------------10--|
B|--8---8---8---8----|          B|-13--10--11---7--|
G|-------------------|          G|-12---8---8---7--|
D|-------------------|          D|-----------------|
A|-------------------|          A|-----------------|
E|-------------------|          E|-----------------| play this riff x 4


-----------------------

guitar 1 + 2:
e|-------------------|
B|-------------------|
G|-------------------|
D|-1010101010101010--|
A|-1010101010101010--|
E|-8 8 8 8 8 8 8 8---| (x4)



|play VERSE x 1

------------------------

|play whole CHORUS x 2


guitar 2 (solo 3) on CHORUS:
e|--------------------------------------------------|
B|--------------------------------------------------|
G|----------------------------------8----8/10-12/15-|
D|-------------8-10-8-h10p8----8-10---10------------|
A|------8-9-10--------------10----------------------|
E|-8-11---------------------------------------------|

e|-----------------------------------|
B|--------------------------------8x-|
G|-12/15-12/15-12/15-12/15h12-10-8---|
D|-----------------------------------|
A|-----------------------------------|
E|-----------------------------------|

e|-----------------------------------------|
B|-13h11 13h11 13h11 13h11 13h11-----------|
G|-----------------------------------------|
D|-------------------------------13-10-----|
A|-----------------------------------------|
E|-----------------------------------------|

e|------------------------------------------|
B|-13h11 13h11 13h11 13h11 13h11------------|
G|------------------------------------------|
D|-------------------------------13-10------|
A|------------------------------------------|
E|------------------------------------------|

e|-------------------------------------------------|
B|-13h11 13h11 13h11 13h11 13h11-------------------|
G|-------------------------------------------------|
D|-------------------------------13-10-13-13\10----|
A|-------------------------------------------------|
E|-------------------------------------------------|


------------------------

end with:

e|-------------------|
B|--8---8---8---8----|
G|-------------------|
D|-------------------|
A|-------------------|
E|-------------------|




| b  bending
| /  slide up
| \  slide down
| h  hammer-on
| p  pull-off
| ~  vibrato
| +  harmonic
| x  Mute note
===============================================================================
Related for Regular John tab