Song name
# A B C D E F G H I J K L M N O P Q R S T U V W X Y Z

Queens Of The Stone Age - Monsters In The Parasol tab

Monsters in the Parasol - QOTSA
tabbed by blamft (blamft@hotmail.com)

Tune down 2 whole steps (CFBbEbGC)
This is how Josh was playing it way back in 2001. Looking at their live dvd, I'd say 
changed things up a bit now. Screw it, just play however you want.

Intro/Verse
-----------------------------------|----------------------------|
--------------------------------9--|----------------------------|
-*------------------------------9-*|----------------------------|
-*------------------------------9-*|----------------------------|
-----------------------------------|----------------------------|
--99999999999999999999999999999----|-9999999999977777777777777--|
 ^ Hold with thumb			"I've seen some things..."

NB: In second verse, Josh substitutes xx101010x for xx999x a couple of times.

Bridge ("She won't grow")
------------------------------------------------|
------------------------------------------------|
-*---------------------------------------------*|
-*-11-10-9----9-10-11-10-11-10-9----9-10-11-10-*|
-----------11--------------------11-------------|
------------------------------------------------|

----------------------------|
----------------------------|
-12-------------14-----15---|
-12------14-----14-----15---|
-10------14-----12-----13---|
---------12-----------------|

Chorus
------------------------------------------|
-11-11-11-11-11-13-11---------------------|
---------------------11-11-11-11-11-13-11-|
------------------------------------------|
------------------------------------------|
------------------------------------------|

-----------12----------------12-------|
--------------10-11-------------10-11-|
-9-9-9-9-9----------9-9-9-9-9---------|
--------------------------------------|
--------------------------------------|
--------------------------------------|
Tap to rate this tab
 
# A B C D E F G H I J K L M N O P Q R S T U V W X Y Z