Song name
# A B C D E F G H I J K L M N O P Q R S T U V W X Y Z

Queens Of The Stone Age - Ode To Clarissa tab

----------------------------------------------------------------------------------
                                      Ode To Clarissa
                                 Queens of the Stone Age
----------------------------------------------------------------------------------

Tuning: Standard


Intro
e|---------------------------------------|
B|---------------------------------3--5--|
G|--4--4-4--4-4--4-4--4-4--4-4--4--3--5--|
D|--5--5-5--5-5--5-5--5-5--5-5--5--3--5--|
A|--5--5-5--5-5--5-5--5-5--5-5--5--1--3--|
E|--3--3-3--3-3--3-3--3-3--3-3--3--------|


Solo (with wah)
e|---------------------------------------------------|
B|---------------------------------------------------|
G|--------10-12b13~--10-12-10---------------10~~-----|
D|--10-12---------------------12~--12-10-12------12--|
A|---------------------------------------------------|
E|---------------------------------------------------|


Verse
e|------------------------------------|
B|--3-3-3------------3-3--------------|
G|--3-3-3--4-4--2-2--3-3--2-2--4-4-4--|
D|--3-3-3--5-5--3-3--3-3--3-3--5-5-5--|
A|--1-1-1--5-5--3-3--1-1--3-3--5-5-5--|
E|---------3-3--1-1-------1-1--3-3-3--|


"You know he warned me once before" bridge
Back to verse after this
e|-----------------------------------------------------------------------------|
B|--3-3-3------------3-3-------------------------------------------------------|
G|--3-3-3--4-4--2-2--3-3--2-2--4--2--2-2--2-2--2-2--2-2--2-2--2-2--2-2--4-4-4--|
D|--3-3-3--5-5--3-3--3-3--3-3--5--3--3-3--3-3--3-3--3-3--3-3--3-3--3-3--5-5-5--|
A|--1-1-1--5-5--3-3--1-1--3-3--5--3--3-3--3-3--3-3--3-3--3-3--3-3--3-3--5-5-5--|
E|---------3-3--1-1-------1-1--3--1--1-1--1-1--1-1--1-1--1-1--1-1--1-1--3-3-3--|


Pre-chorus bridge "You know... once before"
e|--------------------------------------------------------------------|
B|--3-3-3------------3-3--------------------------------------------3-|
G|--3-3-3--4-4--2-2--3-3--2-2--4--2--2-2--2-2--2-2--2-2--2-2--2--4--3-|
D|--3-3-3--5-5--3-3--3-3--3-3--5--3--3-3--3-3--3-3--3-3--3-3--3--5--3-|
A|--1-1-1--5-5--3-3--1-1--3-3--5--3--3-3--3-3--3-3--3-3--3-3--3--5--1-|
E|---------3-3--1-1-------1-1--3--1--1-1--1-1--1-1--1-1--1-1--1--3----|


Chorus
e|-------------------------------------|
B|--------3-3-------3-3----------3--5--|
G|-4-4-4--3-3--2-2--3-3--2-2--2--3--5--|
D|-5-5-5--3-3--3-3--3-3--3-3--3--3--5--|
A|-5-5-5--1-1--3-3--1-1--3-3--3--1--3--|
E|-3-3-3-------1-1-------1-1--1--------|


Intro 1x

Last notes
e|------12fb--|
B|------------|
G|------------|
D|------------|
A|------------|
E|-\18--------|
Tap to rate this tab
# A B C D E F G H I J K L M N O P Q R S T U V W X Y Z