Guitaretab - guitar tabs
Song name
# A B C D E F G H I J K L M N O P Q R S T U V W X Y Z

Queens Of The Stone Age - Six Shooter tab

queens of the stone age
six shooter tab

e-------------------------
b-------------------------
g-1-1-2-4-2-1--7-7--12-12-
d-------------------------
a-------------------------
e-------------------------

e-----------------------
b-------------------8-8-
g-6--6-6-4-6-6--7-7-6-6-
d-6--6-7-6-7-6--6-6-5-5- If these chords sound wrong,
a-4--4-4-4-4-4--5-5-5-5- put more distortion on and
e----------------------- attack harder.
[ Tab from: http://www.guitaretab.com/q/queens-of-the-stone-age/34926.html ]
Lead:
e-----------------------16\15~----
b---------15~----13~--------------
g-14~~----------------------------
d---------------------------------
a---------------------------------
e---------------------------------

e-------------13~---------15~---------
b-----12~-15~-----13~-14~-----12~-15~-
g-13~---------------------------------
d-------------------------------------
a-------------------------------------
e-------------------------------------

"shoot, shoot, shoot"
e-----------------------------------------
b-----------------------------------------
g-6-6--7-7--9-9-10-11-12---15-14-15-14-15-
d-6-6--6-6--9-9-10-11-11------------------
a-4-4--5-5--7-7--8--9-10--0---------------
e-----------------------------------------
Related for Six Shooter tab
Six Shooter chords by Queens Of The Stone Age