Song name
# A B C D E F G H I J K L M N O P Q R S T U V W X Y Z

Queens Of The Stone Age - Regular John Live tab

Tabbed by Ant

2 Whole steps Down: C-F-A♯-D♯-G-C

This is the live intro jam from 98', as seen here: http://www.youtube.com/watch?v=DK0WDolJ6vc

(It's in D.)

1st Riff


C|---------------------------------------------------------------|
G|-------13------------------------------------------------------|
D#|--------12----14~-----------10h12----9h10h9~------------------|
A#|--12------12----------12p10-------12--------------------------|
F|---------------------------------------------------------------|
C|---------------------------------------------------------------|


2nd Riff

C|---------------------------------------------------------------|
G|---------------------------------------------------------------|
D#|--------------------------------------------------------------|
A#|-------9------------------------------------------------------|
F|-----------12h8------------------------------------------------|
C|--10-10----------10~-----7~------------------------------------|
Tap to rate this tab
# A B C D E F G H I J K L M N O P Q R S T U V W X Y Z