Song name
# A B C D E F G H I J K L M N O P Q R S T U V W X Y Z

Queens Of The Stone Age - My God Is The Sun tab

-------------------------------------------------------------------------------
                  My God Is The Sun - Queens Of The Stone Age
-------------------------------------------------------------------------------
Tabbed by: JohnnyLongSkins
Youtube: http://www.youtube.com/user/JohnnyLongSkins

Check out my cover of me playing this for timings ect - 

http://www.youtube.com/watch?v=zHAmg3Ozca8


Tuning:Standard EADGBE

Intro Guitar 1

e|---------------------------------------------------------------------------|
B|---------------------------------------------------------------------------|
G|-----0-0-0-0-----------------0-0-0-0-----------------0-0-0-0---------------|
D|---2---------2-------------2---------2-------------2---------2-------------|
A|-2-------------2---------2-------------2---------2-------------2-----------|
E|-----------------0-0-0-0-----------------0-0-0-0-----------------0-0-0-0---|

e|---------------------------------------------------------------------------|
B|---------------------------------------------------------------------------|
G|-----0-0-0-0-----------------0-0-0-0-----------------0-0-0-0---------------|
D|---2---------2-------------2---------2-------------2---------2-------------|
A|-2-------------2---------2-------------2---------2-------------2-----------|
E|-----------------0-0-0-0-----------------0-0-0-0-----------------0-0-0-0---|

e|---------------------------------------------------------------------------|
B|---------------------------------------------------------------------------|
G|-----0-0-0-0---------------------------------------------------------------|
D|---2---------2-------------------------------------------------------------|
A|-2-------------2---------2-1-0-0-0---0-2-5-5-5-5-5-5-6-6-6-6-6-6-6-6-6-6-6-6
E|-----------------0-0-0-0-----------3---------------------------------------|

Intro Guitar 2

e|---------------------------------------------------------------------------|
B|---------------------------------------------------------------------------|
G|---------------------------------------------------------------------------|
D|-------------2-----------------------2-----------------------2-------------|
A|---------------2-----------------------2-----------------------2-----------|
E|-----------------0-0-0-0-----------------0-0-0-0-----------------0-0-0-0---|

e|---------------------------------------------------------------------------|
B|---------------------------------------------------------------------------|
G|-----------------------------4-4-4-4-0-------------0-4-4-4-4-0-------------|
D|-------------2-------------------------2---------2-------------2-----------|
A|---------------2-------------------------2-2-2-2-----------------2-2-2-2---|
E|-----------------0-0-0-0---------------------------------------------------|

e|---------------------------------------------------------------------------|
B|---------------------------------------------------------------------------|
G|---0-4-4-4-4-0-----------4-3-2-2-2-0-2-4-----------------------------------|
D|-2-------------2-------------------------5-5-5-5-5-5-4-4-4-4-4-4-7-7-7-7-7-7
A|-----------------2-2-2-2---------------------------------------------------|
E|---------------------------------------------------------------------------|

Verse

e|-------------------------------------------------|
B|-------------------------------------------------|
G|-------------------------------------------------| x2
D|-------------------------6-6-6-6-6-6-8-8-8-8-9-8-|
A|-------------6-6-6-6-6-6-------------------------|
E|-0-0-0-0-0-0-------------------------------------|

e|-------------------------------------------------|
B|-------------------------------------------------|
G|-------------------------------------------------| x2
D|-6-6-6-6-6-6-8-8-8-8-8-8-------------6-6-6-6-6-4-|
A|-------------------------6-6-6-6-6-6-------------|
E|-------------------------------------------------|

Chorus Guitar 1

e|------------------------------------------------------------------------|
B|------------------------------------------------------------------------|
G|------------------------------------------------------------------------| x2
D|-11-11-11-11-11-11-12-12-12-12-12-12-13-13-13-13-13-13-14-14-14-14-14-14|
A|------------------------------------------------------------------------|
E|------------------------------------------------------------------------|

e|------------------------------------------------------------------------|
B|-14-14-14-14-14-14-15-15-15-15-15-15-16-16-16-16-16-16-17-17-17-17-17-17|
G|------------------------------------------------------------------------| x2
D|------------------------------------------------------------------------|
A|------------------------------------------------------------------------|
E|------------------------------------------------------------------------|

Chorus Guitar 2

e|-----------------------------------------------------|
B|-2-2-2-2-2-2-3-3-3-3-3-3-4-4-4-4-4-4-5-5-5-5-5-5-/-\-|
G|-----------------------------------------------------| x 4
D|-----------------------------------------------------|
A|-----------------------------------------------------|
E|-----------------------------------------------------|

Break Guitar 1

e|---------------------------------------------------------------------------|
B|---------------------------------------------------------------------------|
G|-----0-0-0-0-----------------0-0-0-0-----------------0-0-0-0---------------|
D|---2---------2-------------2---------2-------------2---------2-------------|
A|-2-------------2---------2-------------2---------2-------------2-----------|
E|-----------------0-0-0-0-----------------0-0-0-0-----------------0-0-0-0---|

e|---------------------------------------------------------------------------|
B|---------------------------------------------------------------------------|
G|-----0-0-0-0-----------------0-0-0-0-----------------0-0-0-0---------------|
D|---2---------2-----------------------2-------------2---------2-------------|
A|-2-------------2-----------------------2---------2-------------2-----------|
E|-----------------0-----------------------0-0-0-0-----------------0-0-0-0---|

e|---------------------------------------------------------------------------|
B|---------------------------------------------------------------------------|
G|-----0-0-0-0---------------------------------------------------------------|
D|---2---------2-------------------------------------------------------------|
A|-2-------------2---------2-1-0-0-0---0-2-5-5-5-5-5-5-6-6-6-6-6-6-6-6-6-6-6-6
E|-----------------0-0-0-0-----------3---------------------------------------|

Break Guitar 2

e|---------------------------------------------------------------------------|
B|----/8----------------------/8----------------------/8---------------------|
G|---------------------------------------------------------------------------|
D|---------------------------------------------------------------------------|
A|---------------------------------------------------------------------------|
E|---------------------------------------------------------------------------|

e|---------------------------------------------------------------------------|
B|----/8---------------------------------------------------------------------|
G|-----------------------------4-4-4-4-0-------------0-4-4-4-4-0-------------|
D|---------------------------------------2---------2-------------2-----------|
A|-----------------------------------------2-2-2-2-----------------2-2-2-2---|
E|---------------------------------------------------------------------------|

e|---------------------------------------------------------------------------|
B|---------------------------------------------------------------------------|
G|---0-4-4-4-4-0-----------4-3-2-2-2-0-2-4-----------------------------------|
D|-2-------------2-------------------------5-5-5-5-5-5-4-4-4-4-4-4-7-7-7-7-7-7
A|-----------------2-2-2-2---------------------------------------------------|
E|---------------------------------------------------------------------------|

e|-------------------------4-4-4-4-4-4-4-4-4-4-4-4-4-------------------------|
B|-------------------------4-4-4-4-4-4-4-4-4-4-4-4-4-------------------------|
G|-------------------------4-4-4-4-4-4-4-4-4-4-4-4-4-------------------------| x2
D|-------------------------6-6-6-6-6-6-6-6-6-6-6-6-6-------------------------|
A|-------------------------6-6-6-6-6-6-6-6-6-6-6-6-6-------------------------|
E|-------------------------4-4-4-4-4-4-4-4-4-4-4-4-4-------------------------|

Verse 2

e|-------------------------------------------------|
B|-------------------------------------------------|
G|-------------------------------------------------| 
D|-------------------------6-6-6-6-6-6-8-8-8-8-9-8-|
A|-------------6-6-6-6-6-6-------------------------|
E|-0-0-0-0-0-0-------------------------------------|

e|-------------------------------------------------|
B|-------------------------------------------------|
G|-------------------------------------------------| 
D|-------------------------------------------------|
A|-------------6-6-6-6-6-6-------------------------|
E|-0-0-0-0-0-0-------------7-7-7-7-7-7-6-6-6-6-6-6-|

e|-------------------------------------------------|
B|-------------------------------------------------|
G|-------------------------------------------------| x2
D|-6-6-6-6-6-6-8-8-8-8-8-8-------------6-6-6-6-6-4-|
A|-------------------------6-6-6-6-6-6-------------|
E|-------------------------------------------------|

e|------------------------------------------------------------|   l
B|------------------------------------------------------------|   |
G|------------------------------------11--11--11--11--11--11--|   |
D|-12---------------------------------------------------------|   |
A|-12---12-12-12-12-12-12-12-12-12-12-9---9---9---9---9---9---|   |
E|-10---10-10-10-10-10-10-10-10-10-10-------------------------|   |
                                                                 x2
e|------------------------------------------------------------|   |
B|------------------------------------------------------------|   |
G|---------------------------------9---9---9---9---9---9---9--|   |
D|-11---------------------------------------------------------|   |
A|-11---11-11-11-11-11-11-11-11-11-7---7---7---7---7---7---7--|   |
E|-9----9--9--9--9--9--9--9--9--9-----------------------------|   |

Repeat Chorus

Break Guitar 1

e|------------------------------------------------------------------------|
B|-14-14-14-14-14-14-15-15-15-15-15-15-16-16-16-16-16-16-17-17-17-17-17-17|
G|------------------------------------------------------------------------| x4
D|-11-11-11-11-11-11-12-12-12-12-12-12-13-13-13-13-13-13-14-14-14-14-14-14|
A|------------------------------------------------------------------------|
E|------------------------------------------------------------------------|

e|------------------------------------------------------------------------|
B|-14----------------15----------------16----------------17---------------|
G|------------------------------------------------------------------------| x2
D|-11----------------12----------------13----------------12---------------|
A|------------------------------------------------------------------------|
E|------------------------------------------------------------------------|

e|------------------------------------------------------------------------|
B|-13----------------12----------------10----------12-10-8----------------|
G|------------------------------------------------------------------------| x2
D|-10----------------9-----------------7-----------9--7--5----------------|
A|------------------------------------------------------------------------|
E|------------------------------------------------------------------------|

Break Guitar 2

e|------------------------------------------|
B|------------------------------------------|
G|-11--9-11--9------------------------------|
D|-------------9------9-8-7------7-9--------|
A|-----------------------------------10-9-7-|
E|------------------------------------------|

e|------------------------------------------|
B|------------------------------------------|
G|-11--9-11--9------------------------------|
D|-------------9------9-8-7------7-9--------|
A|-----------------------------------10-9-7-|
E|------------------------------------------|

e|------------------------------------------|
B|------------------------------------------|
G|-11--9-11--12-11-9------------------------|
D|-------------------9------7-8-9----7-8-9--|
A|------------------------------------------|
E|------------------------------------------|

e|------------------------------------------|
B|------------------------------------------|
G|-11--9-11--12-11-9--------14--12--14--16--|
D|-------------------9----------------------|
A|------------------------------------------|
E|------------------------------------------|

Chorus 3 Guitar 1

e|------------------------------------------------------------------------|
B|-14-14-14-14-14-14-15-15-15-15-15-15-16-16-16-16-16-16-17-17-17-17-17-17|
G|------------------------------------------------------------------------| x4
D|-11-11-11-11-11-11-12-12-12-12-12-12-13-13-13-13-13-13-14-14-14-14-14-14|
A|------------------------------------------------------------------------|
E|------------------------------------------------------------------------|

Chorus 3 Guitar 2

e|-----------------------------------------------------|
B|-2-2-2-2-2-2-3-3-3-3-3-3-4-4-4-4-4-4-5-5-5-5-5-5-/-\-|
G|-----------------------------------------------------| x 4
D|-----------------------------------------------------|
A|-----------------------------------------------------|
E|-----------------------------------------------------|

Break Guitar 1

e|------------------------------------------------------------------------------------|
B|------------------------------------------------------------------------------------|
G|------------------------------------------------------------------------------------|
D|-10---------9---------9-8-7-8-9-------------10---------9---------7-8-9----7-8-9-----|
A|--------------------------------9-10-9-7--------------------------------------------|
E|------------------------------------------------------------------------------------|

e|---------------------------------------------------------------------------|
B|---------------------------------------------------------10-b-(12)---------|
G|---------9-------------9------9-b-(11)-----11-b-(12)-----------------------|
D|-10-------------9----------------------------------------------------------|
A|---------------------------------------------------------------------------|
E|---------------------------------------------------------------------------|

Outro Both Guitars

e|---------------------------------------------------------------------------|
B|---------------------------------------------------------------------------|
G|-----0-0-0-0-----------------0-0-0-0-----------------0-0-0-0---------------|
D|---2---------2-------------2---------2-------------2---------2-------------|
A|-2-------------2---------2-------------2---------2-------------2-----------|
E|-----------------0-0-0-0-----------------0-0-0-0-----------------0-0-0-0---|

e|---------------------------------------------------------------------------|
B|---------------------------------------------------------------------------|
G|---------------------------------------------------------------------------|
D|---------------------------------------------------------------------------|
A|-2-1-0-0-0---0-2-----------------------------------------------------------|
E|-----------3-----0---------------------------------------------------------|

************************************

| /   slide up
| \   slide down
| h   hammer-on
| p   pull-off
| ~   vibrato
| +   harmonic
| x   Mute note
| b   Bend
| pb  Pre-bend
| br  Bend release
| pbr Pre-bend release
| brb Bend release bend

************************************
Tap to rate this tab
 
# A B C D E F G H I J K L M N O P Q R S T U V W X Y Z