Song name
# A B C D E F G H I J K L M N O P Q R S T U V W X Y Z

Queens Of The Stone Age - Monsters In The Parasol tab

Monsters in the Parasol - QOTSA 
(Standard Tuning)

Verse:
(Main Riff)                                                      (Occasionally)
e----------------------|                ||--------------------||
B-o-----------------5-o|                ||-----------------7--||
G-------------------5--|                ||-----------------7--||
D-------------------5--|                ||-----------------7--||
A-o-------------------o|                ||--------------------||
E--555555555555555-----|                ||-55555555555555-----||
   (Slight Palm Mute)              (Slight Palm Mute)

|---------------------------------|
|---------------------------------|
|---------------------------------|     
|---------------------------------|
|-5555555555555556777777777777777-|
  (Slight Palm Mute.............)

Main Riff


Pre Chorus:
|--------------------|
|-o-----------------o|
|--------------------|
|---7-6-5---5-6-7-6--|(x8)
|-o-------7---------o|
|--------------------|

|-------------------------------------------------------------||
|-------------------------------------------------------------||
|-88888888----------99999999----------------------------------||
|-88888888-99999999-99999999-10101010101010101010101010101010-||
|-66666666-99999999-77777777-8-8-8-8-8-8-8-8-8-8-8-8-8-8-8-8--||
|----------77777777-------------------------------------------||

Chorus:
|----------------------------------|-----------8---------------8------||
|o-7-7-7-7-7-7-7-9-----------------|-------------6-7-------------6-7-o||
|------------------7-7-7-7-7-7-7-9-|-5-5-5-5-5-------5-5-5-5-5--------||
|----------------------------------|----------------------------------||
|o---------------------------------|---------------------------------o||
|----------------------------------|----------------------------------||

Tabbed by H (haitch_k@yahoo.com.au)
Tap to rate this tab
# A B C D E F G H I J K L M N O P Q R S T U V W X Y Z