Song name
# A B C D E F G H I J K L M N O P Q R S T U V W X Y Z

Queens Of The Stone Age - My God Is The Sun tab

My God Is The Sun
New Song From  Like ClockWork
Standard tuning (EADGBE)
Time Sig: 3/4
Have Fun


INTRO

Lead Guitar

Shakers Begin   then...              This Bar X6
e|---------------------------|---------------------------|           
B|---------------------------|---------------------------|        
G|---------------------------|---------------------------|        
D|------------------------2--|--5-5-5-5-5-2-----------2--|        
A|----------------------2----|--------------2-2-2-2-2----|        
E|---------------------------|--------------0-0-0-0------|      

e|---------------------------|---------------------------|  
B|---------------------------|---------------------------|
G|---------------------------|---------------------------|
D|--5-5-5-5-5-2---------2----|------------2-5-5-5-5-5-5--|
A|--------------2-2-2-2---2--|--0-0-0-2-5----------------|
E|--------------0-0-0-0------|--------------3-3-3-3-3-3--|

e|---------------------------|           
B|---------------------------|        
G|---------------------------|        
D|--4-4-4-4-4-4-4-4-4-4-4-4--|       
A|---------------------------|        
E|--2-2-2-2-2-2-2-2-2-2-2-2--|    
 
VERSE

BASS PART
e|----------------------------|---------------------------------|
B|----------------------------|---------------------------------|
G|----------------------------|---------------------------------|
D|----------------------------|---------------------------------|  x2
A|----------------------------|---------------------------------| 
E|--0---0-0-0-0-/7---7-7-7-7--|--4---4-4-4-4-/11---11-11-11-11--|


Guitar
e|---------------------------|---------------------------------------|
B|---------------------------|---------------------------------------|
G|---------------------------|---------------------------------------|
D|---------------------------|---------------------------------------|  x2
A|--7-7-7-7-7-7-6-6-6-6-6-6--|--11-11-11-11-11-11-13-13-13-13-13-13--| 
E|---------------------------|---------------------------------------|

e|---------------------------------------|---------------------------------|
B|---------------------------------------|---------------------------------|
G|---------------------------------------|---------------------------------|
D|---------------------------------------|---------------------------------|
A|--11-11-11-11-11-11-13-13-13-13-13-13--|--6-6-6-6-6-6-11-11-11-11-11-13--| 
E|---------------------------------------|---------------------------------|

                               x2

CHORUS

e|---------------------------|---------------------------|    
B|---------------------------|---------------------------|    
G|--6-6-6-6-6-6-7-7-7-7-7-7--|--8-8-8-8-8-8-9-9-9-9-9-9--|    
D|---------------------------|---------------------------| X3 
A|--4-4-4-4-4-4-5-5-5-5-5-5--|--6-6-6-6-6-6-7-7-7-7-7-7--|    
E|---------------------------|---------------------------|    

e|---------------------------|---------------------------|
B|---------------------------|---------------------------|
G|--6-6-6-6-6-6-7-7-7-7-7-7--|--8-8-8-8-8-8-9-9-9-9------|
D|---------------------------|------------------------2--|
A|--4-4-4-4-4-4-5-5-5-5-5-5--|--6-6-6-6-6-6-7-7-7-7-2----|
E|---------------------------|---------------------------|

POST CHORUS RIFF
                                                      Pause
e|---------------------------|     e|---------------------------|
B|---------------------------|     B|---------------------------|
G|---------------------------|     G|---------------------------|
D|--5-5-5-5-5-2-----------2--| x3  D|--5-5-5-5-5-2--------------|
A|--------------2-2-2-2-2----|     A|--------------2------------|
E|--------------0-0-0-0------|     E|--------------0------------|

e|---------------------------|     
B|---------------------------|     
G|---------------------------|     
D|--5-5-5-5-5-2-----------2--| x2 
A|--------------2-2-2-2-2----|     
E|--------------0-0-0-0------|     

e|---------------------------|---------------------------|  
B|---------------------------|---------------------------|
G|---------------------------|---------------------------|
D|--5-5-5-5-5-2---------2----|------------2-5-5-5-5-5-5--|
A|--------------2-2-2-2---2--|--0-0-0-2-5----------------|
E|--------------0-0-0-0------|--------------3-3-3-3-3-3--|

e|---------------------------|
B|---------------------------|
G|---------------------------|
D|--4-4-4-4-4-4-4-4-4-4-4-4--|
A|---------------------------|
E|--2-2-2-2-2-2-2-2-2-2-2-2--|

           SHAKERS                                            
e|---------------------------|---------------------------|
B|---------------------------|---------------------------|
G|---------------------------|---------------------------|
D|---------------------------|--6-6-6-6-6-6-6-6-6-6-6-6--|  X2
A|---------------------------|--6-6-6-6-6-6-6-6-6-6-6-6--| 
E|---------------------------|--4-4-4-4-4-4-4-4-4-4-4-4--|

VERSE 2

e|---------------------------|---------------------------------------|
B|---------------------------|---------------------------------------|
G|---------------------------|---------------------------------------|
D|---------------------------|---------------------------------------|  
A|--7-7-7-7-7-7-6-6-6-6-6-6--|--11-11-11-11-11-11-13-13-13-13-13-13--| 
E|---------------------------|---------------------------------------|

e|---------------------------|---------------------------|
B|---------------------------|---------------------------|
G|---------------------------|---------------------------|
D|---------------------------|---------------------------|  
A|--7-7-7-7-7-7-6-6-6-6-6-6--|--2-2-2-2-2-2-1-1-1-1-1-1--| 
E|---------------------------|---------------------------|

e|---------------------------------------|---------------------------------|
B|---------------------------------------|---------------------------------|
G|---------------------------------------|---------------------------------|
D|---------------------------------------|---------------------------------|
A|--11-11-11-11-11-11-13-13-13-13-13-13--|--6-6-6-6-6-6-11-11-11-11-11-13--| 
E|---------------------------------------|---------------------------------|

                                 x2

BRIDGE X2

  PM-----------------------------------                             

e|--------------------------------------|--------------------------|
B|--------------------------------------|--------------------------|
G|--------------------------------------|--------------------------|
D|--------------------------------------|--16--16--16--16--16--16--| 
A|--1o-1o-1o-1o-1o-1o-1o-1o-1o-10-10-10-|--------------------------|
E|--8--8--8--8--8--8--8--8--8--8--8--8--|--14--14--14--14--14--14--|

  PM-----------------------------------

e|--------------------------------------|--------------------------|
B|--------------------------------------|--------------------------|
G|--------------------------------------|--------------------------|
D|--------------------------------------|--14--14--14--14--14--14--|
A|--1o-1o-1o-1o-1o-1o-1o-1o-1o-10-10-10-|--------------------------|
E|--8--8--8--8--8--8--8--8--8--8--8--8--|--12--12--12--12--12--12--|


CHORUS 2

LEAD GUITAR
e|---------------------------|---------------------------|    
B|---------------------------|---------------------------|    
G|--6-6-6-6-6-6-7-7-7-7-7-7--|--8-8-8-8-8-8-9-9-9-9-9-9--|    
D|---------------------------|---------------------------| X4 
A|--4-4-4-4-4-4-5-5-5-5-5-5--|--6-6-6-6-6-6-7-7-7-7-7-7--|    
E|---------------------------|---------------------------|    

SOLO 1

e|---------------------------|---------------------------|
B|--5-7--5-7/5---------------|---------------------------|
G|--------------4~------6p4--|--2~------4p2-2p0----------|
D|---------------------------|------------------2--------|  x2
A|---------------------------|---------------------------| 
E|---------------------------|---------------------------|

e|-------------------------------|---------------------------|
B|--5-7p5-5-7-8-7p5--------------|---------------------------|
G|------------------4~------6p4--|--2~------4p2-2p0----------|
D|-------------------------------|------------------2--------| 
A|-------------------------------|---------------------------| 
E|-------------------------------|---------------------------|

e|-------------------------------|---------------------------|
B|--5-7p5-5-7-8-7p5--------------|--10~-------12~------------|
G|------------------4~--------4--|---------------------------|
D|-------------------------------|---------------------------| 
A|-------------------------------|---------------------------| 
E|-------------------------------|---------------------------|

CHORUS 3

e|---------------------------|---------------------------|    
B|---------------------------|---------------------------|    
G|--6-6-6-6-6-6-7-7-7-7-7-7--|--8-8-8-8-8-8-9-9-9-9-9-9--|    
D|---------------------------|---------------------------| X4 
A|--4-4-4-4-4-4-5-5-5-5-5-5--|--6-6-6-6-6-6-7-7-7-7-7-7--|    
E|---------------------------|---------------------------| 

BREAKDOWN

Rough Idea, generally improvise.

e|-----------------------------------------|
B|-----------------------------------------|
G|-----------------------------------------|
D|--14b15b14-12----------------------------|
A|--------------14~-14p12-14p12-14b15b14~--| 
E|-----------------------------------------|

e|---------------------------------------------|
B|---------------------------------------------|
G|---------------------------------------------|
D|--14b15b14-12--------------------------------|
A|---------------14~-14/12-12/10-10/9-10p9-7~--|
E|---------------------------------------------|

e|-----------------------------------------|
B|-----------------------------------------|
G|-----------------------------------------|
D|--14b15b14-12----------------------------|
A|--------------14~-14p12-14p12-14b15b14~--|
E|-----------------------------------------|

e|-------------------------------|
B|-------------------------------|
G|--14b15b14-12-14/17-16-17-21~--|
D|-------------------------------|
A|-------------------------------|
E|-------------------------------|

SLIDE GUITAR (During Breakdown, again, rough)
e|-----------------------------------------|
B|-----------------------------------------|
G|--/9----------/7---------/4--------/9----|
D|-----------------------------------------| X3
A|-----------------------------------------|
E|-----------------------------------------|

e|-------------------------------|
B|--/7------/8--------/10--/12~--|
G|-------------------------------|
D|-------------------------------|
A|-------------------------------|
E|-------------------------------|


END RIFF
                                     This Bar x2
e|---------------------------|---------------------------|           
B|---------------------------|---------------------------|        
G|---------------------------|---------------------------|        
D|------------------------2--|--5-5-5-5-5-2-----------2--|        
A|----------------------2----|--------------2-2-2-2-2----|        
E|---------------------------|--------------0-0-0-0------|

e|---------------------------|---------------------------|
B|---------------------------|---------------------------|
G|---------------------------|---------------------------|
D|--5-5-5-5-5-2---------2----|------------2--------------|
A|--------------2-2-2-2---2--|--0-0-0-2-5----2-----------|
E|--------------0-0-0-0------|---------------0-----------|
Tap to rate this tab
 
# A B C D E F G H I J K L M N O P Q R S T U V W X Y Z