Song name
# A B C D E F G H I J K L M N O P Q R S T U V W X Y Z

Queens Of The Stone Age - My God Is The Sun tab

-------------------------------------------------------------------------------
                             My God Is The Son - Queens of The Stone Age
-------------------------------------------------------------------------------
Tabbed by: Kirabax
E-mail: seriously, you came here for an email, huh?
The song is a single from upcoming album ...Like Clockwork.Sounds great, so, just enjoy.

I would really appreciate all sorts of ratings.

Tuning: standard E (EADGBe)
INTRO(Lead and Rhytm)
e|--------------------------------------------------------------------------|
B|--------------------------------------------------------------------------|
G|--------------------------------------------------------------------------|
D|-----5-5-5-5--2-0-----------------X4--------------------------------------|
A|-2h4----------------------------------------------------------------------|
E|------------------0x-0x-0x-0x---------------------------------------------|

e|-----------------------------------------------------------------------------|
B|-----------------------------------------------------8-8-8-8-8-8-7-7-7-7-7-7-|
G|------4-4-4-4----------------------------------------------------------------|
D|--------------5-2-----------X3-------9-8-7-7-7-5-7-9-------------------------|
A|-2h4-------------------------------------------------------------------------|
E|-------------------0-0-0-0---------------------------------------------------|

Verse(Rhytm Guitar)

e|---------------------------------------------------------------------------|
B|---------------------------------------------------------------------------|
G|---------------------------------------------------------------------------|
D|------------1-1-1-1-1-1--/6-6-6-6-6-6-8-8-8-8-9-8--------------------------|
A|---------------------------------------------------------------------------|
E|-0-0-0-0-0-0--------------------------------------0-0-0-0-0-0--------------|

e|---------------------------------------------------------------------------|
B|---------------------------------------------------------------------------|
G|---------------------------------------------------------------------------|
D|-1-1-1-1-1-1-/6-6-6-6-6-6-8-8-8-8-9-8-6-6-6-6-6-6-8-8-8-8-8-8-\1-1-1-1-1-1-|
A|---------------------------------------------------------------------------|
E|---------------------------------------------------------------------------|

e|---------------------------------------------------------------------------|
B|---------------------------------------------------------------------------|
G|---------------------------------------------------------------------------|
D|-6-6-6-6-6-6-4-6-6-6-6-6-6-8-8-8-8-8-8-\1-1-1-1-1-1-6-6-6-6-6-6------------|
A|---------------------------------------------------------------------------|
E|---------------------------------------------------------------------------|

Chorus (Lead Guitar)
e|---------------------------------------------------------------------------|
B|---------------------------------------------------------------------------|
G|-2-2-2-2-2-2--2-2-2-2-2-2--2-2-2-2-2-2-------------------------------------|
D|-2-2-2-2-2-2--2-2-2-2-2-2--2-2-2-2-2-2--2-2-2-2-2-2------------------------|
A|-0-0-0-0-0-0----------------------------2-2-2-2-2-2---------X4-------------|
E|--------------3-3-3-3-3-3--2-2-2-2-2-2--0-0-0-0-0-0------------------------|

Chorus(Rhytm Guitar)
e|---------------------------------------------------------------------------|
B|---------------------------------------------------------------------------|
G|-6-6-6-6-6-6-7-7-7-7-7-7-8-8-8-8-8-8-9-9-9-9-9-9/////---------X2-----------|
D|---------------------------------------------------------------------------|
A|---------------------------------------------------------------------------|
E|---------------------------------------------------------------------------|

e|---------------------------------------------------------------------------|
B|-14-14-14-14-14-14-15-15-15-15-15-15-16-16-16-16-16-16-17-17-17-17-17-17///|
G|---------------------------------------------------------------------------|
D|---------------------------------------------------------------------------|
A|---------------------------------------------------------------------------|
E|---------------------------------------------------------------------------|

After Chorus come back to Intro and play this:

e|----------------------------------------|
B|----------------------------------------|
G|----------------------------------------|
D|-6-6-6-6-6-6-6-6-6-6-6-6----------------|
A|-6-6-6-6-6-6-6-6-6-6-6-6----X2----------|
E|-4-4-4-4-4-4-4-4-4-4-4-4----------------|

Verse(Rhytm Guitar)
e|---------------------------------------------------------------------------|
B|---------------------------------------------------------------------------|
G|---------------------------------------------------------------------------|
D|------------1-1-1-1-1-1--/6-6-6-6-6-6-8-8-8-8-9-8--------------------------|
A|---------------------------------------------------------------------------|
E|-0-0-0-0-0-0--------------------------------------0-0-0-0-0-0--------------|

e|---------------------------------------------------------------------------|
B|---------------------------------------------------------------------------|
G|---------------------------------------------------------------------------|
D|-1-1-1-1-1-1-/6-6-6-6-6-6-8-8-8-8-9-8-6-6-6-6-6-6-8-8-8-8-8-8-\1-1-1-1-1-1-|
A|---------------------------------------------------------------------------|
E|---------------------------------------------------------------------------|

e|---------------------------------------------------------------------------|
B|---------------------------------------------------------------------------|
G|---------------------------------------------------------------------------|
D|-6-6-6-6-6-6-4-6-6-6-6-6-6-8-8-8-8-8-8-\1-1-1-1-1-1-6-6-6-6-6-6------------|
A|---------------------------------------------------------------------------|
E|---------------------------------------------------------------------------|

e|---------------------------------------------------------------------------|
B|---------------------------------------------------------------------------|
G|--------------------------------------11-11-11-11-11-11-11-11-11-11-11-11--|
D|-12-12-12-12-12-12-12-12-12-12-12-12--11-11-11-11-11-11-11-11-11-11-11-11--|
A|-12-12-12-12-12-12-12-12-12-12-12-12---9--9--9--9--9--9--9--9--9--9--9--9--|
E|-10-10-10-10-10-10-10-10-10-10-10-10---------------------------------------|

e|---------------------------------------------------------------------------|
B|---------------------------------------------------------------------------|
G|--------------------------------------9-9-9-9-9-9-9-9-9-9-9-9--------------|
D|-10-10-10-10-10-10-10-10-10-10-10-10--9-9-9-9-9-9-9-9-9-9-9-9--------------|
A|-10-10-10-10-10-10-10-10-10-10-10-10--7-7-7-7-7-7-7-7-7-7-7-7--------------|
E|--8--8--8--8--8--8--8--8--8--8--8--8---------------------------------------|

e|---------------------------------------------------------------------------|
B|---------------------------------------------------------------------------|
G|--------------------------------------11-11-11-11-11-11-11-11-11-11-11-11--|
D|-12-12-12-12-12-12-12-12-12-12-12-12--11-11-11-11-11-11-11-11-11-11-11-11--|
A|-12-12-12-12-12-12-12-12-12-12-12-12---9--9--9--9--9--9--9--9--9--9--9--9--|
E|-10-10-10-10-10-10-10-10-10-10-10-10---------------------------------------|

e|---------------------------------------------------------------------------|
B|---------------------------------------------------------------------------|
G|--------------------------------------9-9-9-9-9-9-9-9-9-9-9-9--------------|
D|-10-10-10-10-10-10-10-10-10-10-10-10--9-9-9-9-9-9-9-9-9-9-9-9--------------|
A|-10-10-10-10-10-10-10-10-10-10-10-10--7-7-7-7-7-7-7-7-7-7-7-7--------------|
E|--8--8--8--8--8--8--8--8--8--8--8--8---------------------------------------|

Come back to CHORUS

Solo
e|---------------------------------------------------------------------------|
B|---------------------------------9b--9h7~~---------------------------------|
G|-9b--9h7~~---------------------------------p9--9p8p7-----7h9---------------|
D|----------p9-9p8p7----7h9----------------------------10------9b-7----------|
A|-------------------10-----9b-----------------------------------------------|
E|---------------------------------------------------------------------------|

e|---------------------------------------------------------------------------|
B|--------7-------------------------------------7--------11p10p9~~-9h1010b---|
G|-9b--9b---9p7--------------------------9b--9b---9p7------------------------|
D|--------------p9--9p8p7-----7h8h9-------------------p9---------------------|
A|------------------------10-------------------------------------------------|
E|---------------------------------------------------------------------------|


Chorus (Lead Guitar)
e|---------------------------------------------------------------------------|
B|---------------------------------------------------------------------------|
G|-2-2-2-2-2-2--2-2-2-2-2-2--2-2-2-2-2-2-------------------------------------|
D|-2-2-2-2-2-2--2-2-2-2-2-2--2-2-2-2-2-2--2-2-2-2-2-2------------------------|
A|-0-0-0-0-0-0----------------------------2-2-2-2-2-2---------X4-------------|
E|--------------3-3-3-3-3-3--2-2-2-2-2-2--0-0-0-0-0-0------------------------|

OUTRO(Solo 2)
e|---------------------------------------------------------------------------|
B|---------------------------------------------------------------------------|
G|-9b~~--------------------9b-9b-9b-9b---------------------------------------|
D|-------9p8p7--7h9--------------------9~~--9-9p8p7h8h9----------------------|
A|------------------9b-7--------------------------------9b-7-----------------|
E|---------------------------------------------------------------------------|

e|---------------------------------------------------------------------------|
B|--------------------------------------------10b--------let ring------------|
G|---------------------9p7-----9--9b9--11b-11--------------------------------|
D|-7~~--8h9p8h9--7~~-9-----9p7-----------------------------------------------|
A|---------------------------------------------------------------------------|
E|---------------------------------------------------------------------------|

e|--------------------------------------------------------------------------|
B|--------------------------------------------------------------------------|
G|--------------------------------------------------------------------------|
D|-----5-5-5-5--2-0---------------x3---9-8-7-7-7-5-7-9-5--------------------|
A|-2h4----------------------------------------------------------------------|
E|------------------0x-0x-0x-0x---------------------------------------------|



************************************

| /   slide up
| \   slide down
| h   hammer-on
| p   pull-off
| ~   vibrato
| x   palm mute note
| b   Bend


************************************
Tap to rate this tab
 
# A B C D E F G H I J K L M N O P Q R S T U V W X Y Z