Song name
# A B C D E F G H I J K L M N O P Q R S T U V W X Y Z

Queens Of The Stone Age - First It Giveth tab

Queens of the Stone Age - First it giveth
Drop D tuning.

You can also just play the lower string, but when playing on your own powerchords sound better

E|---------------------------------------------------|
B|---------------------------------------------------|
G|---------------------------------------------------|
D|-8-8-8-8-8-8-8-8-9-9-9-9-9-9-9-9--3-3-3-3-3-3-3-3--|
A|-8-8-8-8-8-8-8-8-9-9-9-9-9-9-9-9--3-3-3-3-3-3-3-3--|
D|-8-8-8-8-8-8-8-8-9-9-9-9-9-9-9-9--3-3-3-3-3-3-3-3--|

E|----------------------------|
B|----------------------------|
G|----------------------------|
D|-11-11-11-11-11-11-11-11----|
A|-11-11-11-11-11-11-11-11----|
D|-11-11-11-11-11-11-11-11----|

E|--------------------------------------------------------------|
B|--------------------------------------------------------------|
G|--------------------------------------------------------------|
D|-8-8-8-8-8-8-6-8-9-9-9-9-9-9-8-9-11-11-11-11-11-11-11-11------|
A|-8-8-8-8-8-8-6-8-9-9-9-9-9-9-8-9-11-11-11-11-11-11-11-11------|
D|-8-8-8-8-8-8-6-8-9-9-9-9-9-9-8-9-11-11-11-11-11-11-11-11------|

E|---------------------------------------------------|
B|---------------------------------------------------|
G|---------------------------------------------------|
D|-8-8-8-8-8-8-6-8-9-9-9-9-9-9-8-9-3-3-3-3-3-3-3-3-3-|
A|-8-8-8-8-8-8-6-8-9-9-9-9-9-9-8-9-3-3-3-3-3-3-3-3-3-|
D|-8-8-8-8-8-8-6-8-9-9-9-9-9-9-8-9-3-3-3-3-3-3-3-3-3-|

E|----------------------------|
B|----------------------------|
G|----------------------------|
D|-11-11-11-11-11-11-11-11----|
A|-11-11-11-11-11-11-11-11----|
D|-11-11-11-11-11-11-11-11----|

Chorus:
E|-------------------------------------------------------------|
B|-------------------------------------------------------------|
G|-------------------------------------------------------------|
D|-8-8-8-8-8-8-8-8--11-11-11-11-11-11-11-11--4-4-4-4-1-1-1-1---|
A|-8-8-8-8-8-8-8-8--11-11-11-11-11-11-11-11--4-4-4-4-1-1-1-1---|
D|-8-8-8-8-8-8-8-8--11-11-11-11-11-11-11-11--4-4-4-4-1-1-1-1---|

Acoustic part:
E|------------------------------------------------------------|
B|-2-2-2-2-2-2-2-2-2-2-4-4-4-4-4-4-4-4------------------------|
G|-3-3-3-3-3-3-3-3-3-3-4-4-4-4-4-4-4-4-2-2-2-2-2-2-2-2-2------|
D|-3-3-3-3-3-3-3-3-3-3-4-4-4-4-4-4-4-4-3-3-3-3-3-3-3-3-3------|
A|-1-1-1-1-1-1-1-1-1-1-2-2-2-2-2-2-2-2-3-3-3-3-3-3-3-3-3------|
E|-------------------------------------3-3-3-3-3-3-3-3-3------|

E|-------------------|
B|--6-6-6-6-6-6-6-6--|
G|--6-6-6-6-6-6-6-6--|
D|--6-6-6-6-6-6-6-6--|
A|--4-4-4-4-4-4-4-4--|
E|-------------------|

Solo:
E|---------------------------------------------------|
B|-------------------------------------10------------|
G|-10-8h10p8----------------10-8h10p8----------------|
D|-----------10-10s11p10p8---------------------------|
A|---------------------------------------------------|
D|---------------------------------------------------|
Tap to rate this tab
 
# A B C D E F G H I J K L M N O P Q R S T U V W X Y Z