Song name
# A B C D E F G H I J K L M N O P Q R S T U V W X Y Z

Queens Of The Stone Age - If I Had A Tail tab

QUEENS OF THE STONE AGE /// ARTIST
IF I HAD A TAIL /// SONG
...LIKE CLOCKWORK /// ALBUM
2013 /// YEAR



TABBED BY /// KLAXOO

TUNING /// STANDARD


(INTRO)

e-------------------------------11------------|
B------14---------14---------14----14----14---|
G---------------------------------------------|       the 2nd guitar joins after 3 repeats
D---11----11---11----11---11----------11------|
A---------------------------------------------|
E---------------------------------------------|



(VERSE)

e-----------------------------------------|
B-----------------------------------------|
G---------4-6-6---6-4---4-4---4-4---4-4---|
D-----4-6---6-6---6-6---6-6---6-6---6-4---|
A---7-------------------------------------|
E-----------------------------------------|



(CHORUS)

e----------------------------------|
B----------------------------------|
G----------------------------------|       2x
D----------------------------2-2---|
A---------2----4------2------2-2---|
E---0h2h4--------6------0----0-0---|


e----------------------------------|
B----------------------------------|
G----------------------------------|       2x
D----------------------------------|
A---------4----6------4------2-----|
E---0h2h4--------7------6------0---|



(SOLO)

e---------------------------------------------------------9---|
B---9-------------9-12b-9------------------------9b-9b-9b-----|
G-----9------9h11---------11p9---13p11h13-11-9----------------|
D-------11-9-------------------11--------------11-------------|
A-------------------------------------------------------------|
E-------------------------------------------------------------|


e----------------------------------------------------------------|
B------------------------9-9-9-9h11-9-12b-12b-9-----------9-9~---|
G---9-13p11-11-9----9h11------------------------11-9-9-11--------|
D----------------11----------------------------------------------|
A----------------------------------------------------------------|
E----------------------------------------------------------------|



(VERSE)



(CHORUS)



(ORGANRIFF)

e---9-7----------------|
B-------10-9-7-----7---|
G----------------9-----|
D----------------------|
A----------------------|
E----------------------|



(VERSE)



(CHORUS) just the second riff



(OUTRO)

e----------------------------------------------|
B----------------------------------------------|
G----------------------------------------------|       2x
D---4-4-4-4----4-4-4-4----4-4-4-4----4-4-4-4---|
A---4-4-4-4----4-4-4-4----4-4-4-4----4-4-4-4---|
E---2-2-2-2--0h2-2-2-2--0h2-2-2-2--0h2-2-2-2---|


(ORGANRIFF)
Tap to rate this tab
# A B C D E F G H I J K L M N O P Q R S T U V W X Y Z