Song name
# A B C D E F G H I J K L M N O P Q R S T U V W X Y Z

Queens Of The Stone Age - Little Sister tab

Intro:

e |-------------------------------------------------------------|
B |-------------------------------------------------------------|  (1x)
G |-------------------------------------------------------------|
D |-------------------------------------------------13-13-13----|  FX: Overdrive (less gain)
A |---------11-11----11-11-11-----14-14-14----------11-11-11----|
E |---------9--9-----11-11-11-----12-12-12----------------------|


e |-------------------------------------------------------------|
B |-------------------------------------------------------------|  (3x)
G |-------------------------------------------------------------|
D |-------------------------------------------------13-13-13----|
A |-----11-11-11----11-11-11-----14-14-14-----------11-11-11----| 
E |-----9--9--9-----11-11-11-----12-12-12-----------------------|

Verse #1:

Hey sister why you all alone?
I'm standing out your window
Hey little sister, can I come inside, dear?


e |-------------------------------------------------------------|
B |-------------------------------------------------------------|
G |-------------------------------------------------------------|
D |-------------------------------------------------13-13-13----|
A |-----11-11-11----11-11-11-----14-14-14-----------11-11-11----| 
E |-----9--9--9-----11-11-11-----12-12-12-----------------------|


e |-------------------------------------------------------------|
B |-------------------------------------------------------------|
G |-------------------------------------------------------------|
D |-------------------------------------------------13-13-13----|
A |-----11-11-11----11-11-11-----14-14-14-----------11-11-11----| 
E |-----9--9--9-----11-11-11-----12-12-12-----------------------|


e |-------------------------------------------------------------|
B |-------------------------------------------------------------|
G |-------------------------------------------------------------|
D |-------------------------------------------------13-13-13----|
A |-----11-11-11----11-11-11-----14-14-14-----------11-11-11----| 
E |-----9--9--9-----11-11-11-----12-12-12-----------------------|


e |-------------------------------------------------------------|
B |-------------------------------------------------------------|
G |-------------------------------------------------------------|
D |---11-11-11---11-11-11---------------------------------------|
A |---9--9--9----9--9--9----14-14-14--14-14\13----13\11---------| 
E |-------------------------12-12-12--12-12\11----11\9----------|


I wanna show you all my love
I wanna be the only one
I know you like nobody ever, baby


e |-------------------------------------------------------------|
B |-------------------------------------------------------------|
G |-------------------------------------------------------------|
D |-------------------------------------------------13-13-13----|
A |-----11-11-11----11-11-11-----14-14-14-----------11-11-11----| 
E |-----9--9--9-----11-11-11-----12-12-12-----------------------|


e |-------------------------------------------------------------|
B |-------------------------------------------------------------|
G |-------------------------------------------------------------|
D |-------------------------------------------------13-13-13----|
A |-----11-11-11----11-11-11-----14-14-14-----------11-11-11----| 
E |-----9--9--9-----11-11-11-----12-12-12-----------------------|


e |-------------------------------------------------------------|
B |-------------------------------------------------------------|
G |-------------------------------------------------------------|
D |-------------------------------------------------13-13-13----|
A |-----11-11-11----11-11-11-----14-14-14-----------11-11-11----| 
E |-----9--9--9-----11-11-11-----12-12-12-----------------------|


e |-------------------------------------------------------------|
B |-------------------------------------------------------------|
G |-------------------------------------------------------------|
D |---11-11-11---11-11-11---------------------------------------|
A |---9--9--9----9--9--9----14-14-14--14-14\13----13\11---------| 
E |-------------------------12-12-12--12-12\11----11\9----------|

Chorus #1:

Little sister can't you find another way
No more livin' life behind the shadow
Little sister can't you find another way
No more livin' life behind the shadow


e |-------------------------------------------------------------|
B |-------------------------------------------------------------|
G |-------------------------------------------------------------|
D |--11-9--11-9--11-9--11-9--11---------------------------------|
A |--9--9--9--9--9--9--9--9--9---14-12-14-12-14-12-14-12--------| 
E |------------------------------12-12-12-14-12-12-12-12--------|

     
e |-------------------------------------------------------------|
D |-------------------------------------------------------------|
E |-------------------------------------------------------------|
G |-------------------------------------------------------------|
D |--13-11-13-11-13-11-13-11--11-9--11-9-11--9--11-9------------|
A |--11-11-11-11-11-11-11-11--9--9--9--9--9--9--9--9------------| 
E |-------------------------------------------------------------|


e |-------------------------------------------------------------|
B |-------------------------------------------------------------|
G |-------------------------------------------------------------|
D |--11-9--11-9--11-9--11-9--11---------------------------------|
A |--9--9--9--9--9--9--9--9--9---14-12-14-12-14-12-14-12--------| 
E |------------------------------12-12-12-14-12-12-12-12--------|


e |-------------------------------------------------------------|
D |-------------------------------------------------------------|
E |-------------------------------------------------------------|
G |-------------------------------------------------------------|
D |--13-11-13-11-13-11-13-11--11-9--11-9-11--9--11-9------------|
A |--11-11-11-11-11-11-11-11--9--9--9--9--9--9--9--9------------| 
E |-------------------------------------------------------------|

Little sister can't you find another way
No more livin' life behind the shadow
Little sister can't you find another way
No more livin' life behind the shadow

e |-------------------------------------------------------------|
B |-------------------------------------------------------------|
G |-------------------------------------------------------------|
D |--11-9--11-9--11-9--11-9--11---------------------------------|
A |--9--9--9--9--9--9--9--9--9---14-12-14-12-14-12-14-12--------| 
E |------------------------------12-12-12-14-12-12-12-12--------|


e |-------------------------------------------------------------|
D |-------------------------------------------------------------|
E |-------------------------------------------------------------|
G |-------------------------------------------------------------|
D |--13-11-13-11-13-11-13-11--11-9--11-9-11--9--11-9------------|
A |--11-11-11-11-11-11-11-11--9--9--9--9--9--9--9--9------------| 
E |-------------------------------------------------------------|


e |-------------------------------------------------------------|
B |-------------------------------------------------------------|
G |-------------------------------------------------------------|
D |--11-9--11-9--11-9--11-9--11---------------------------------|
A |--9--9--9--9--9--9--9--9--9---14-12-14-12-14-12-14-12--------| 
E |------------------------------12-12-12-14-12-12-12-12--------|


e |-------------------------------------------------------------|
D |-------------------------------------------------------------|
E |-------------------------------------------------------------|
G |-------------------------------------------------------------|
D |--13-11-13-11-13-11-13-11----13-11-13-11-13-11-13-11---------|
A |--11-11-11-11-11-11-11-11----11-11-11-11-11-11-11-11---------| 
E |-------------------------------------------------------------|

Solo #1 (FX: Matchless Hotbox + Klon Centaur):

e |-------------------------------------------------------------| 
B |--12/14\12---------------------------------------------------|
G |--------------11/13\11--------11/13\11-----------------------|
A |------------------------------------------11/13\11-----------| 
D |-------------------------------------------------------------|
E |-------------------------------------------------------------|  (2x)

e |-------------------------------------------------------------|
B |-------------------------------------------------------------|
G |-------------------------------------------------------------|
D |-------------------------------------------------13-13-13----|
A |-----11-11-11----11-11-11-----14-14-14-----------11-11-11----| 
E |-----9--9--9-----11-11-11-----12-12-12-----------------------|

e |-------------------------------------------------------------| 
B |--12/14\12---------------------------------------------------|
G |--------------11/13\11--------11/13\11-----------------------|
A |------------------------------------------11/13\11-----------| 
D |-------------------------------------------------------------|
E |-------------------------------------------------------------|  (1x)

Verse #2:

You whisper secrets in my ear
Slowly dancing cheek to cheek
It's such a sweet thing when you open up, baby

e |-------------------------------------------------------------|
B |-------------------------------------------------------------|
G |-------------------------------------------------------------|
D |-------------------------------------------------13-13-13----|
A |-----11-11-11----11-11-11-----14-14-14-----------11-11-11----| 
E |-----9--9--9-----11-11-11-----12-12-12-----------------------|

e |-------------------------------------------------------------|
B |-------------------------------------------------------------|
G |-------------------------------------------------------------|
D |-------------------------------------------------13-13-13----|
A |-----11-11-11----11-11-11-----14-14-14-----------11-11-11----| 
E |-----9--9--9-----11-11-11-----12-12-12-----------------------|

e |-------------------------------------------------------------|
B |-------------------------------------------------------------|
G |-------------------------------------------------------------|
D |-------------------------------------------------13-13-13----|
A |-----11-11-11----11-11-11-----14-14-14-----------11-11-11----| 
E |-----9--9--9-----11-11-11-----12-12-12-----------------------|

e |-------------------------------------------------------------|
B |-------------------------------------------------------------|
G |-------------------------------------------------------------|
D |---11-11-11---11-11-11---------------------------------------|
A |---9--9--9----9--9--9----14-14-14--14-14\13----13\11---------| 
E |-------------------------12-12-12--12-12\11----11\9----------|


They say I'll only do you wrong
We come together 'cause I understand
Just who you really are, yeah baby


e |-------------------------------------------------------------|
B |-------------------------------------------------------------|
G |-------------------------------------------------------------|
D |-------------------------------------------------13-13-13----|
A |-----11-11-11----11-11-11-----14-14-14-----------11-11-11----| 
E |-----9--9--9-----11-11-11-----12-12-12-----------------------|

e |-------------------------------------------------------------|
B |-------------------------------------------------------------|
G |-------------------------------------------------------------|
D |-------------------------------------------------13-13-13----|
A |-----11-11-11----11-11-11-----14-14-14-----------11-11-11----| 
E |-----9--9--9-----11-11-11-----12-12-12-----------------------|

e |-------------------------------------------------------------|
B |-------------------------------------------------------------|
G |-------------------------------------------------------------|
D |-------------------------------------------------13-13-13----|
A |-----11-11-11----11-11-11-----14-14-14-----------11-11-11----| 
E |-----9--9--9-----11-11-11-----12-12-12-----------------------|

e |-------------------------------------------------------------|
B |-------------------------------------------------------------|
G |-------------------------------------------------------------|
D |---11-11-11---11-11-11---------------------------------------|
A |---9--9--9----9--9--9----14-14-14--14-14\13----13\11---------| 
E |-------------------------12-12-12--12-12\11----11\9----------|

Chorus #2:

Little sister can't you find another way
No more livin' life behind the shadow
Little sister can't you find another way
No more livin' life behind the shadow

e |-------------------------------------------------------------|
B |-------------------------------------------------------------|
G |-------------------------------------------------------------|
D |--11-9--11-9--11-9--11-9--11---------------------------------|
A |--9--9--9--9--9--9--9--9--9---14-12-14-12-14-12-14-12--------| 
E |------------------------------12-12-12-14-12-12-12-12--------|


e |-------------------------------------------------------------|
D |-------------------------------------------------------------|
E |-------------------------------------------------------------|
G |-------------------------------------------------------------|
D |--13-11-13-11-13-11-13-11--11-9--11-9-11--9--11-9------------|
A |--11-11-11-11-11-11-11-11--9--9--9--9--9--9--9--9------------| 
E |-------------------------------------------------------------|


e |-------------------------------------------------------------|
B |-------------------------------------------------------------|
G |-------------------------------------------------------------|
D |--11-9--11-9--11-9--11-9--11---------------------------------|
A |--9--9--9--9--9--9--9--9--9---14-12-14-12-14-12-14-12--------| 
E |------------------------------12-12-12-14-12-12-12-12--------|


e |-------------------------------------------------------------|
D |-------------------------------------------------------------|
E |-------------------------------------------------------------|
G |-------------------------------------------------------------|
D |--13-11-13-11-13-11-13-11--11-9--11-9-11--9--11-9------------|
A |--11-11-11-11-11-11-11-11--9--9--9--9--9--9--9--9------------| 
E |-------------------------------------------------------------|

Little sister can't you find another way
No more livin' life behind the shadow
Little sister can't you find another way
No more livin' life behind the shadow

e |-------------------------------------------------------------|
B |-------------------------------------------------------------|
G |-------------------------------------------------------------|
D |--11-9--11-9--11-9--11-9--11---------------------------------|
A |--9--9--9--9--9--9--9--9--9---14-12-14-12-14-12-14-12--------| 
E |------------------------------12-12-12-14-12-12-12-12--------|


e |-------------------------------------------------------------|
D |-------------------------------------------------------------|
E |-------------------------------------------------------------|
G |-------------------------------------------------------------|
D |--13-11-13-11-13-11-13-11--11-9--11-9-11--9--11-9------------|
A |--11-11-11-11-11-11-11-11--9--9--9--9--9--9--9--9------------| 
E |-------------------------------------------------------------|


e |-------------------------------------------------------------|
B |-------------------------------------------------------------|
G |-------------------------------------------------------------|
D |--11-9--11-9--11-9--11-9--11---------------------------------|
A |--9--9--9--9--9--9--9--9--9---14-12-14-12-14-12-14-12--------| 
E |------------------------------12-12-12-14-12-12-12-12--------|


e |-------------------------------------------------------------|
D |-------------------------------------------------------------|
E |-------------------------------------------------------------|
G |-------------------------------------------------------------|
D |--13-11-13-11-13-11-13-11----13-11-13-11-13-11-13-11---------|
A |--11-11-11-11-11-11-11-11----11-11-11-11-11-11-11-11---------| 
E |-------------------------------------------------------------|

Solo #2 (FX: Matchless Hotbox + Klon Centaur):

e |-------------------------------------------------------------| 
B |--12/14\12---------------------------------------------------|
G |--------------11/13\11--------11/13\11-----------------------|
D |------------------------------------------11/13\11-----------| 
A |-------------------------------------------------------------|
E |-------------------------------------------------------------|  (2x)

e |-------------------------------------------------------------|
B |-----12/14\12----14/16\14--------14/16\17----16/14\13--------|
G |-------------------------------------------------------------|
D |-------------------------------------------------------------|
A |-------------------------------------------------------------|
E |-------------------------------------------------------------|  (2x)

e |-------------------------------------------------------------|
B |------14-14-14----16-16-16---------17-17-17------------------|
G |-------------------------------------------------------------|
D |-------------------------------------------------------------|
A |-------------------------------------------------------------|
E |-------------------------------------------------------------|

e |15b---16-16-16----14b-14-14----12h14p12----------------------|
B |-------------------------------------------16h14h13~---------|
G |-------------------------------------------------------------|
D |-------------------------------------------------------------|
A |-------------------------------------------------------------|
E |-------------------------------------------------------------|

e |-------------------------------------------------------------|
B |------12-14-------12h-14-------------------------------------|
G |--13b--------13~---------13------13--11--13--11--13----------|
D |----------------------------------------------------------13-|
A |----------------------------------------------------11s14----|
E |-------------------------------------------------------------|

e |-------------------------------------------------------------|
B |-------------------------------------------------------------|
G |--11h13-----------------------------11h---13-----------------|
D |--------13s11-----------------------------------13h11h9h-11--|
A |--------------9h11-11--9h11---9h11---------------------------|
E |-------------------------------------------------------------|

e |-------------------------------------------------------------|
B |-------------------------------------------------------------|
G |-------------------------------------------------------------|
D |--11~---11-13-11-13-11b-11------13-11-13-10~-----------------|
A |-------------------------------------------------------------|
E |-------------------------------------------------------------|

e |-------------------------------9--9--------------------------|
B |-------------9---------------9--------12-14----13------------|
G |-----------9---------------9-----------------13--------------|
D |--9-9/--11----------9/-11------------------------------------|
A |-------------------------------------------------------------|
E |-------------------------------------------------------------|

e |------------------------------/16----------------------------|
B |--12-14-12-14/16-14-16/17--14-----14-------------------------|
G |-------------------------------------------------------------|
D |-------------------------------------------------------------|
A |-------------------------------------------------------------|
E |-------------------------------------------------------------|

e |----------------------------------14-14-14------------14-14--|
B |--12-14-12-14/16-14-16/17--16/17-----------------------------|
G |-------------------------------------------------------------|
D |-------------------------------------------------------------|
A |-------------------------------------------------------------|
E |-------------------------------------------------------------|

e |--14/16-16-16-14/16-16-16----------12/14-14-14-11------------|
B |-------------------------------------------------------------|
G |-------------------------------------------------------------|
D |-------------------------------------------------------------|
A |-------------------------------------------------------------|
E |-------------------------------------------------------------|

e |-----16----16----16----16-----19----19----16----16-----------|
B |--14----14----16----16-----17----17----13----13--------------|
G |-------------------------------------------------------------|
D |-------------------------------------------------------------|
A |-------------------------------------------------------------|
E |-------------------------------------------------------------|  (4x)
Tap to rate this tab
 
# A B C D E F G H I J K L M N O P Q R S T U V W X Y Z