Song name
# A B C D E F G H I J K L M N O P Q R S T U V W X Y Z

Queens Of The Stone Age - Feel Good Hit Of The Summer tab

Intro (bass):


G|-----------------|-----------------|
D|-----------------|-----------------|  (2x)
A|-111-11-1-11-111-|--111-11-1--1-111|
E|-----------------|-----------1-----|


Nicotine, valium, vicodin, marijuana, ecstasy, and alcohol
Nicotine, valium, vicodin, marijuana, ecstasy, and alcohol
Nicotine, valium, vicodin, marijuana, ecstasy, and alcohol, oh!
Nicotine, valium, vicodin, marijuana, ecstasy, and alcohol


    A#5                                D#5
E|------------------------------|    |--------|  Guitar #1
B|------------------------------|    |--------|
G|------------------------------|    |---8b---|
D|--8-8-8--8-8--8--8-8--8-8-8---|    |---8b---|
A|--8-8-8--8-8--8--8-8--8-8-8---|    |---6b---|  FX: Distortion
E|--6-6-6--6-6--6--6-6--6-6-6---|(4x)|--------|



E|------------------------------|    |--------|  Guitar #2
B|------------------------------|    |---6b---|
G|------------------------------|    |---8b---|
D|--8-8-8--8-8--8--8-8--8-8-8---|    |--------|
A|--8-8-8--8-8--8--8-8--8-8-8---|    |--------|  FX: Distortion
E|--6-6-6--6-6--6--6-6--6-6-6---|(4x)|--------|



   A#5        D#5
C|-C-C-C-C-C Cocaine
C|-C-O-C-C-C Cocaine
C|-Co Cocaine, oh!
C|-C-C-C-C-C Cocaine


    A#5                      D#5
E|-------------------|    |--------|  Guitar #1
B|-------------------|    |--------|
G|-------------------|    |---8b---| 
D|--8--8--8--8--8--8-|    |---8b---|
A|--8--8--8--8--8--8-|    |---6b---|  FX: Distortion
E|--6--6--6--6--6--6-|(4x)|--------|


E|-------------------|    |--------|  Guitar #2
B|-------------------|    |---6b---|
G|-------------------|    |---8b---|
D|--8--8--8--8--8--8-|    |--------|
A|--8--8--8--8--8--8-|    |--------|  FX: Distortion
E|--6--6--6--6--6--6-|(4x)|--------|



  A#5
Nicotine, valium, vicodin, marijuana, ecstasy, and alcohol
Nicotine, valium, vicodin, marijuana, ecstasy, and alcohol, oh!
Nicotine, valium, vicodin, marijuana, ecstasy, and alcohol
Nicotine, valium, vicodin, marijuana, ecstasy, and alcohol


    A#5
E|------------------------------|  Guitar #1 & #2
B|------------------------------|
G|------------------------------|
D|--8-8-8--8-8--8--8-8--8-8-8---|
A|--8-8-8--8-8--8--8-8--8-8-8---|  FX: Distortion
E|--6-6-6--6-6--6--6-6--6-6-6---|



  A#5
Nicotine, valium, vicodin, marijuana, ecstasy, and alcohol
Nicotine, valium, vicodin, marijuana, ecstasy, and alcohol, oh!
Nicotine, valium, vicodin, marijuana, ecstasy, and alcohol
Nicotine, valium, vicodin, marijuana



    A#5
E|------------------------------|  Guitar #1
B|------------------------------|
G|------------------------------|
D|--8-8-8--8-8--8--8-8--8-8-8---|
A|--8-8-8--8-8--8--8-8--8-8-8---|  FX: Distortion
E|--6-6-6--6-6--6--6-6--6-6-6---|



E|------------------------------|  Guitar #2
B|-----------------11-\9-/-11---|
G|------------------------------|  W/ Slide
D|------------------------------|
A|------------------------------|  FX: Distortion
E|------------------------------|



   A#5        D#5
C|-c-c-c-c-c cocaine!


               D#5
           e|--------|  Guitar #1
           B|--------|
           G|---8b---| 
           D|---8b---|
           A|---6b---|  FX: Distortion
           E|--------|


           e|--------|  Guitar #2
           B|---6b---|
           G|---8b---|
           D|--------|
           A|--------|  FX: Distortion
           E|--------|
Tap to rate this tab
 
# A B C D E F G H I J K L M N O P Q R S T U V W X Y Z