Song name
# A B C D E F G H I J K L M N O P Q R S T U V W X Y Z

Queens Of The Stone Age - Misfit Love tab

Intro:


E|---------------------------------------------|
B|---------------------------------------------| » (6x)
G|---------------------------------------------|
D|---------------------------------------------|
A|---------------------------------------------| » FX: Distortion
E|-0-2-0-2-----0-2-----0-2-0-2-----0-0-0-0-2---|



Verso #1:

Wanna see my past in flames
Don't waste a drop Baby, I ain't fussed

Where I was born No escape
There, There ain't even no good/bad drugs

In the city is it true?
If you don't, you act like you do

Feast of fools. I can't wait
Give em a taste of my Misfit Love

Complicate
Encarcerate
Feel my heart wake up


E|---------------------------------------------|
B|---------------------------------------------| » (10x)
G|---------------------------------------------|
D|---------------------------------------------|
A|---------------------------------------------| » FX: Distortion
E|-0-2-0-2-----0-2-----0-2-0-2-----0-0-0-0-2---|



Refrão:

Ain't born to lose baby
I'm born to win
I'm so goddamn sick baby, it's a Sin
It's a Sin


E|---------------------------------------------|
B|---------------------------------------------| » (1x)
G|---------------------------------------------|
D|---------------------------------------------|
A|---------------------------------------------| » FX: Distortion
E|-0-2-0-2/6-----0-2/6-----0-2-0-2/8-----0-2/8-|



E|-------------------------------------|
B|-------------------------------------| » (2x)
G|-------------------------------------|
D|-------------------------------------|
A|-------------------------------------| » FX: Distortion
E|-0-2-0-2-----0-2-----0-2-----0-2-----|



Transforming is becoming
Transforming is becoming down me



E|---------------------------------------------|
B|---------------------------------------------| » (2x)
G|---------------------------------------------|
D|---------------------------------------------|
A|---------------------------------------------| » FX: Distortion
E|-0-0-0-0-2-----0-2-0-2-----0-2-------2-------|




E|-----------------------------------------------------|
B|-----------------------------------------------------| » (1x)
G|-----------------------------------------------------|
D|-----------------------------------------------------|
A|-----------------------------------------------------| » FX: Distortion
E|-0-0-0-0-2-----0-2-0-2-----0-2-------2-----0-0-0-0-2-|


Verso #2:

Do me first. Do your worst
Gimmie what I want some of

One track mind, no time to waste
Sidewalks, feel me strut so good?

Gutter, Don't forget this face
Let em taste my Misfit Love

I'll show you all my Dirty Tricks
Then show em again
I'm so proud of em

It's cruel to be constantly
Feel my heart play dumb



E|---------------------------------------------|
B|---------------------------------------------| » (10x)
G|---------------------------------------------|
D|---------------------------------------------|
A|---------------------------------------------| » FX: Distortion
E|-0-2-0-2-----0-2-----0-2-0-2-----0-0-0-0-2---|



Refrão:

Ain't born to lose baby
I'm born to win
I'm so goddamn sick baby, it's a Sin
It's a Sin


E|---------------------------------------------|
B|---------------------------------------------| » (1x)
G|---------------------------------------------|
D|---------------------------------------------|
A|---------------------------------------------| » FX: Distortion
E|-0-2-0-2/6-----0-2/6-----0-2-0-2/8-----0-2/8-|



E|---------------------------------------------------------------|
B|---------------------------------------------------------------| » (1x)
G|---------------------------------------------------------------|
D|---------------------------------------------------------------|
A|---------------------------------------------------------------| » FX: Distortion
E|-0-----2-----0-----2-----0-----2-----0-----0-2-0-2-----0-2-0-0-|




Refrão #2:

  A                                           G#
Just a dead man walking through the dead of night

          D
And if you're going anywhere tonight

  A                                           G#
Just a dead end walking through the dead of night

          D
And if you're going, can I get a ride?

  A                                           G#
Just a dead man walking through the dead of night

          D
It's impossible to wait until the light



E|-----------------------------------------------------------------|
B|-----------------------------------------------------------------|
G|-6-6-6-6-6-6-6-6-6-6-6-6-6-6-6-6-5-5-5-5-5-5-5-5-5-5-5-5-5-5-5-5-|
D|-----------------------------------------------------------------|
A|-----------------------------------------------------------------|
E|-----------------------------------------------------------------|



E|-----------------------------------------------------------------|
B|-----------------------------------------------------------------|
G|-7-7-7-7-7-7-7-7-7-7-7-7-7-7-7-7--6-----6-----6-----6-----6---6--|
D|------------------------------------4-4---4-4---4-4---4-4---4----|
A|-----------------------------------------------------------------|
E|-----------------------------------------------------------------|
                                                                    » (4x)


Final:

A                   G#
'Cause I'm already gone

        D                 A
If you bet on me, you've won

A                   G#
'Cause I'm already gone

        D                 A
If you bet on me, you've won

A                   G#
'Cause I'm already gone

        D                 A
If you bet on me, you've won

A                   G#
'Cause I'm already gone

        D                 A
If you bet on me, you've won



E|-----------------------------------------------------------------|
B|-----------------------------------------------------------------| » (4x)
G|-6-6-6-6-6-6-6-6-5-5-5-5-5-5-5-5-7-7-7-7-7-7-7-7-6-6-6-6-6-6-6-6-|
D|-7-7-7-7-7-7-7-7-6-6-6-6-6-6-6-6-7-7-7-7-7-7-7-7-7-7-7-7-7-7-7-7-|
A|-----------------------------------------------------------------| » FX: Distortion
E|-----------------------------------------------------------------|
Tap to rate this tab
# A B C D E F G H I J K L M N O P Q R S T U V W X Y Z