Song name
# A B C D E F G H I J K L M N O P Q R S T U V W X Y Z

Queens Of The Stone Age - Kalopsia tab

(/) Slide Up  (\) Slide Down  (h) Hammer On  (p) Pull Off  (b) Bend (r) Release
(x) Mute


QUEENS OF THE STONE AGE-   KALOPSIA  -  ...Like Clockwork

Tab by FruitCakeReaper - (Lesson on Youtube Check It Out!)



E|-------------------------------------------------|
B|-------------------------------------------------|
G|-------------------------------------------------|
D|------9-11-9------------------------9-11-9-------|
A|-9-12--------12--9---9h12p9----9-12--------12-9--|
E|-------------------------------------------------|

E|-------------------------------------|
B|-------------------------------------|
G|-------------------------------------|
D|-----------5-7-5------------7p5------|
A|-9-7\5-7-8-------8-5---5h8------5/7--|
E|-------------------------------------|

E|-----------------------------------------------------------------------|
B|-----------------------------------------------------------------------|
G|-----------------------------------------------------------------------|
D|------9-11-9--------------9-11-9---------------------9-11-9----11------|
A|-9-12--------12-9---9-12---------12-9--9h12p9---9-12--------12---------|
E|-----------------------------------------------------------------------|

E|---------------------------------------------------------------------------|
B|---------------------------------------------------------------------------|
G|--------------------------------------------------7-----5---------------15-|
D|-----------5-7-5----------------9-11-9----11------7-----5----12----10---15-|
A|-9-7\5-7-8-------8-5---/7---9-12-------12--------------------10----8----13-|
E|---------------------------------------------------------------------------|

E|-----------------[---------------------------------------]
B|-----------------[---------------------------------------]
G|-----------------[----------------------9-11-9-11-9-11-9-]  this box
D|-17-17-17-19-17--[---------------------------------------]  x2
A|-17-17-17-17-17--[9-12-9-12-9-12-9-12-9------------------]
E|-----------------[---------------------------------------]



(DISTORTION)

E|----------x-x------------x-x----------x-x----------/-------x--|
B|--10------x-x---9--------x-x---3------x-x---6------/-8-----x--|
G|--11------x-x---10-------x-x---4------x-x---7------/-9-----x--|
D|--12-(x7)-x-x---11-(x7)--x-x---5-(x7)-x-x---8-(x7)-/-10----x--| x2
A|--12------x-x---11-------x-x---5------x-x---8------/-10----x--|
E|--10------X-x---9--------x-x---3------x-x---6------/--8----x--|

E|----------x-x------------x-x----------------------------x--|
B|--10------x-x---9--------x-x---3-------5---6-------8----x--|
G|--11------x-x---10-------x-x---4-------6---7-------9----x--|
D|--12-(x7)-x-x---11-(x7)--x-x---5-(x7)--7---8-(x7)--10---x--|
A|--12------x-x---11-------x-x---5-------7---8-------10---x--|
E|--10------X-x---9--------x-x---3-------5---6-------8----x--|

E|----------x-x------------x-x-----------------------------------|
B|--10------x-x---9--------x-x---3-------3---5---6---------------|
G|--11------x-x---10-------x-x---4-------4---6---7---------------|
D|--12-(x7)-x-x---11-(x7)--x-x---5-(x7)--5---7---8 (hold)--------|
A|--12------x-x---11-------x-x---5-------5---7---8---------------|
E|--10------X-x---9--------x-x---3-------3---5---6---------------|


(Clean)

   (x3)this box   Sometimes I like to make the single note a chord with (11)
E|--------------------------]-----------------------------------------------|
B|--------------------------]-----------------------------------------------|
G|-11-12---9----11-------9--]-7-----11---7-----9--11-12---9----11-------9---|
D|--------(11)------12--(11)]---8---10------8------------(11)------12--(11)-|
A|--------------------------]-----------------------------------------------|
E|--------------------------]-----------------------------------------------|

E|---------------------------------------------------------------------------|
B|---------------------------------------------------------------------------|
G|---------------------------------------------------------------------------|
D|---------------------------------------------------------------------------|
A|-10--12--10--12---8-10-8-10-8--13-12-13-12--13-15-13-15-13-15-13-15-15/17--|
E|---------------------------------------------------------------------------|

E|-----------------[---------------------------------------|
B|-----------------[---------------------------------------|
G|-----------------[----------------------9-11-9-11-9-11-9-|
D|-17-17-17-19-17--[---------------------------------------|
A|-17-17-17-17-17--[9-12-9-12-9-12-9-12-9------------------|
E|-----------------[---------------------------------------|

E|---------------------------------------------------|
B|---------------------------------------------------|
G|-----------------------------9-11-9h11p9h11p9h11p9-|
D|----------------9-9h11p9---------------------------|
A|-9-12-9-12-9-12---------12------(extra picking)----|
E|---------------------------------------------------|

E|---------------------------------------------------------------------------|
B|---------------------------------------------------------------------------|
G|---------------------------------------------------------------------------|
D|------9-11-9-------------9-11-9------------------5-7-5------------7p5------|
A|-9-12--------12--9--9-12--------12-9---9-7\5-7-8-------8-5-5--5h8------5/7-|
E|---------------------------------------------------------------------------|

E|-----------------------------------------------------------------------|
B|-----------------9-----------------------------------------------9-----|
G|-----------------9-----------------------------------------------9-----|
D|------9-11-9-----9--------9-11-9----------------------9-11-9-----9-----|
A|-9-12--------12-11---9-12---------12-9-9-9h12p9---9-12--------12-------|
E|-----------------------------------------------------------------------|

E|--------------------------------------------------------------------------|
B|--------------------------------------------------------------------------|
G|-------------------------------------------9h11p9---7---5-------------15--|
D|-----------5-7-5-----------------9-11-9-------------7---5---12---10---15--|
A|-9-7\5-7-8-------8-5---/7---9-12--------12------------------10---8----13--|
E|--------------------------------------------------------------------------|

E|-----------------|
B|-----------------|
G|-----------------|
D|-17-17-17-19-17--|
A|-17-17-17-17-17--|
E|-----------------|

(DISTORTION)

E|----------x-x------------x-x----------x-------------------x--|
B|--10------x-x---9--------x-x---3------x--5---6-------8----x--|
G|--11------x-x---10-------x-x---4------x--6---7-------9----x--|
D|--12-(x7)-x-x---11-(x7)--x-x---5-(x7)-x--7---8-(x7)--10---x--|  x3
A|--12------x-x---11-------x-x---5------x--7---8-------10---x--|
E|--10------X-x---9--------x-x---3------x--5---6-------8----x--|

E|------------------------------x-------------------x--|
B|--10----10----9----9---3------x--5---6-------8----x--|
G|--11----11----10---10--4------x--6---7-------9----x--|
D|--12----12----11---11--5-(x7)-x--7---8-(x7)--10---x--|
A|--12----12----11---11--5------x--7---8-------10---x--|
E|--10----10----9----9---3------x--5---6-------8----x--|

E|-----------------------|
B|--10----10----9----9---|
G|--11----11----10---10--|
D|--12----12----11---11--|
A|--12----12----11---11--|
E|--10----10----9----9---|



E|---------------------------------------------------------|
B|---------------------------------------------------------|
G|---------------------------------------------------------|
D|----------------------------------------------3----------|
A|-3-5b5b5b-3-5-5b-5b-5p3-----3-5b5b5b-3-5b-5b-----5-------|
E|------------------------5--------------------------------|

E|---------------------------------------------------------|
B|---------------------------------------------------------|
G|---------------------------------------------------------|
D|------------------------------3-5-5-5-3-5----------------|
A|-3-5b5b5b-3-5-5b-5p3-----3-5--------------5--------------|
E|---------------------5-----------------------------------|

E|---------------------------------------------------------|
B|---------------------------------------------------------|
G|---------------------------------------------------------|
D|-3-5-5b-5b-5b-3-5b-5b-p3-----------------------------3---|
A|-------------------------5----3-5b5b5b-3-5b-5b-5p3-----5-|
E|---------------------------------------------------5-----|

E|---------------------------------------------------------|
B|---------------------------------------------------------|
G|---------------------------------------------------------|
D|----------------------------3----------------------------|
A|-3-5b5b5b-3-5-5b-p3-----3-5------------------------------|
E|---------------------------------------------------------|

(this last bit is pretty rough notes-just find how you want to do it)
Again check my video lesson on youtube.  Search for: FruitCakeReaper
I will respond to any questions you have on the video. Let me know of any major errors.
Tap to rate this tab
 
# A B C D E F G H I J K L M N O P Q R S T U V W X Y Z