Song name
# A B C D E F G H I J K L M N O P Q R S T U V W X Y Z

Queens Of The Stone Age - Fairweather Friends tab

7/9 means Slide in normal Tempo from 7 to 9
7s9 means Slide really fast from the 7th fret to the 9th, so you can barely hear the 7th.


Intro:

--B5-------------------------------A5-----------------|
e-----------------------------------------------------|
B-----------------------------------------------------|
G-----------------------------------------------------|
D--9---9---9---9---9---9---9---9-9-7-------7----------|
A--9---9---9---9---9---9---9---9-9-7-7/9/10-10/9/7----|
E--7---7---7---7---7---7---7---7-7-5------------------|x2

--------------------------------A5-----------------------------------|
e--------------------------------------------------------------------|
B--------------------------------------------------------------------|
G---------0-------------4----------------------------------7---------|
D-----2-------4-----2-------4---7----------7---9---7---9-------------|
A---3---3---------3---3---------7---7h9h10---------------------8s7---|
E-------------------------------5------------------------------------|

Verse:
----B-----Badd9----E5----G5--A5-------|---B-----Badd9-----E5--------------|
e---2-----2---------------------------|---2-----2-------------------------|
B---4-----2---------------------------|---4-----2-------------------------|
G---4-----4---------------------------|---4-----4-------------------------|
D---4-----4---------2-----5---7-------|---4-----4---------2---------------|
A---2-----2---------2-----5---7-------|---2-----2---------2---------------|
E-------------------0-----3---5-----x3|-------------------0---------------|

Pre Chr.
----G5-------E5----G5----A5-B5-|----------------------------|
e------------------------------|---------------7------------|
B------------------------------|----------------------------|
G------------------------------|-----7-9-7-9b11--9b11-9-7---|
D---555555-5-22----555555-7-9--|---9------------------------|
A---555555-5-22----555555-7-9--|----------------------------|
E---333333-3-00----333333-5-7--|----------------------------|

----G5-------E5---------------G5---A5-|
e-------------------------------------|
B-----------------5---(5--)-----------|
G-----------------7b9-(7b9)-----------|
D---555555-5-22---------------555557--|
A---555555-5-22---------------555557--|
E---333333-3-00---------------333335--|

Interlude
e-------------------------------------------|
B---------10b12---10-10b12-10--10b12-10-8-8-|
G---8---------------------------------------|
D-----11-9----------------------------------|
A-------------------------------------------|
E-------------------------------------------|

e------------------------------------------2-0----|
B----------------------------------------------3--|
G---9b11-9-7-9b11---2h4-2h4-2--5b7-4------4-----4-|
D----------------------------4--------------------|
A-------------------------------------------------|
E-------------------------------------------------|

e-----------------------------------|
B--------10b12---10b12-10b12--8(7)--|
G---8-------------------------------|
D----11-9---------------------------|
A-----------------------------------|
E-----------------------------------|

e--------------------------------7------------------|
B---------------------------------------------------|
G---9b11-9-7-9b11---7-9-7-9-7------7-7-9-7-9-7-7b9--|
D----------------------------9----------------------|
A---------------------------------------------------|
E---------------------------------------------------|

Chorus:

----G5---E5--B5--A5---|--|--G5------E5------B5------A5--------|
e---------------------|--|------------------------------------|
B---------------------|--|------------------------------------|
G---------------------|--|------------------------------------|
D-----5---2---9---7---|--|--5-5-5-5-2-2-2-2-9-9-9-9-7-7-7-7---|
A----5-5-2-2-9-9-7-7--|--|--5-5-5-5-2-2-2-2-9-9-9-9-7-7-7-7---|
E---3---0---7---5-----|or|--3-3-3-3-0-0-0-0-7-7-7-7-5-5-5-5---|3x

----G5-----E5-----------------------------------|
e-----------------------------------------------|
B-----------------------------------------------|
G-----------------------------------------------|
D---5-5-5-5-2-2-2-2-----------------------------|
A---5-5-5-5-2-2-2-2-----------------------------|
E---3-3-3-3-0-0-0-0-----------------------------|

-----------4/4-----------------------------------------|  only 3/4 long
e---B5------A5---------------------|-------------------|
B----------------------------------|-------------------|
G----------------------------------|-------------------|
D---9-9-9-9-7----------7-----------|---9-9-9-9-7-------|
A---9-9-9-9-7---7-9-10---10-9-7----|---9-9-9-9-7-------|
E---7-7-7-7-5-------------------|x3|---7-7-7-7-5-------|

Interlude 2 (4/4 and 3/4)

e--------------------------------|
B-----5-7---5-7---7/5-7/5--------|
G---7----5------4---------4--4-4-|
D--------------------------------|
A--------------------------------|
E--------------------------------|x2

e-------5-7---7-7-7-7-5-----------------------------|
B----5-7-7------------------10p7-10p7-10p7-10----5--|
G---7------4-----------7----------------------5-7---|
D---------------------------------------------------|
A---------------------------------------------------|
E---------------------------------------------------|

Verse 2
played clean---------------------|played distorted
----B------Badd9--|---E5--G5-A5--|
e---2------2------|--------------|
B---4------2------|--------------|
G---4------4------|--------------|
D---4------4------|---2---5--7---|
A---2------2------|---2---5--7---|
E-----------------|---0---3--5---|

played distorted
----B------Badd9------E5--G5-A5-|
e---2------2--------------------|
B---4------2--------------------|
G---4------2--------------------|
D---4------4----------2---5--7--|
A---2------4----------2---5--7--|
E---------------------0---3--5--|x3



Chorus:

----G5------E5------B5------A5-------|
e------------------------------------|
B------------------------------------|
G------------------------------------|
D---5-5-5-5-2-2-2-2-9-9-9-9-7-7-7-7--|
A---5-5-5-5-2-2-2-2-9-9-9-9-7-7-7-7--|
E---3-3-3-3-0-0-0-0-7-7-7-7-5-5-5-5--|x7

----G5------E5--------|
e---------------------|
B---------------------|
G---------------------|
D---5-5-5-5-2-2-2-2---|
A---5-5-5-5-2-2-2-2---|
E---3-3-3-3-0-0-0-0---|


e------------------------------|--------------|
B------------------------------|--------------|
G------------------------------|--------------|
D---9-9-9-9-7-------7----------|---9-9-9-9-7--|
A---9-9-9-9-7-7-9-10-10-9-7----|---9-9-9-9-7--|
E---7-7-7-7-5----------------x3|---7-7-7-7-5--|
Tap to rate this tab
# A B C D E F G H I J K L M N O P Q R S T U V W X Y Z