Song name
# A B C D E F G H I J K L M N O P Q R S T U V W X Y Z

Queens Of The Stone Age - The Vampyre Of Time And Memory tab

Tabbed by:me
E-mail:i8yourmom4lunch@yahoo.com

I took some piano tabs, some guitar tabs and mixed them and gave them some flavor 'til
it sounded good to me. Still working out the middle part, so hopefully I come back to it
:D  This is my first tab too, not quite patient enough for this lol but I really love 
this song and want to share.

Tuning: standard

Verse

    finger pick                   give few strums then slide and repeat
e|--5----5---5--3-1-3---5-----5---1/5------------------------------------|
B|--6----6---6--------------------1/5------------------------------------|
G|--7----7--------------7-----7---2/6------------------------------------|
D|--7----7---7----------7-----7---3/7------------------------------------|
A|-5--5-5-------------------------3/7------------------------------------|
E|---------8-----------7---7-7----1/5------------------------------------|

Chorus - strum and pick alternatively  ...play strings open during chord changes second time
e|-6--7-5------------------------------------------------------------------------------|
B|-6--x-5-----(x 2)--------------------------------------------------------------------|
G|-7--7-6------------------------------------------------------------------------------|
D|-8--6-7------------------------------------------------------------------------------|
A|-8----7------------------------------------------------------------------------------|
E|-6----5------------------------------------------------------------------------------|
Tap to rate this tab
# A B C D E F G H I J K L M N O P Q R S T U V W X Y Z