Song name
# A B C D E F G H I J K L M N O P Q R S T U V W X Y Z

Queens Of The Stone Age - I Sat By The Ocean tab

I Sat By The Ocean - Queens of The Stone Age

(Tabbed by Haitch - haitch_k@yahoo.com.au)

Intro:
e|--4-4--2/4-4--2/4-4--2/4-------|
B|--4-4--2/4-4--2/4-4--2/4-------|
G|--5-5--3/5-5--3/5-5--3/5--Rest-|
D|--6-6--4/6-6--4/6-6--4/6-------|
A|--6-6--4/6-6--4/6-6--4/6-------|
E|--4-4--2/4-4--2/4-4--2/4-------|

Riff A:
|--4-4--2/4-4--2/4-4--2/4-4/6-6--7-7--7-7-7--7\2-2--2-2-2--2/4-4--2/4-4---|
|o-4-4--2/4-4--2/4-4--2/4-4/6-6--7-7--7-7-7--7\2-2--2-2-2--2/4-4--2/4-4---|
|--5-5--3/5-5--3/5-5--3/5-5/7-7--8-8--8-8-8--8\3-3--3-3-3--3/5-5--3/5-5---|
|--6-6--4/6-6--4/6-6--4/6-6/8-8--9-9--9-9-9--9\4-4--4-4-4--4/6-6--4/6-6---|
|o-6-6--4/6-6--4/6-6--4/6-6/8-8--9-9--9-9-9--9\4-4--4-4-4--4/6-6--4/6-6---|
|--4-4--2/4-4--2/4-4--2/4-4/6-6--7-7--7-7-7--7\2-2--2-2-2--2/4-4--2/4-4---|

|--2/4-4--2/4-4\2-2--0-0--0-0-0----------B-R------4-4--2/4-4--2/4-4--2/4--||
|--2/4-4--2/4-4\2-2--0-0--0-0-0--4/6-6---6(6)6\4--4-4--2/4-4--2/4-4--2/4-o||
|--3/5-5--3/5-5\3-3--1-1--1-1-1--4/6-6---6(6)6\4--5-5--3/5-5--3/5-5--3/5--||
|--4/6-6--4/6-6\4-4--2-2--2-2-2--4/6-6---6(6)6\4--6-6--4/6-6--4/6-6--4/6--||
|--4/6-6--4/6-6\4-4--2-2--2-2-2--2/4-4---4(4)4\2--6-6--4/6-6--4/6-6--4/6-o||
|--2/4-4--2/4-4\2-2--0-0--0-0-0-------------------4-4--2/4-4--2/4-4--2/4--||


Slide Lead 1: {(/or\) = legato}
|------------------------------------------------------------------------|
|--(7/9\7/9\7)------(7/9\7)------------------7---------------------------|
|--------------8-8---------(8\6\4)-------6/8---6vvv--8/9---(8\6\5/8vvvv)-|
|------------------------------------------------------------------------|
|------------------------------------------------------------------------|
|------------------------------------------------------------------------|

|------------------------------------------------------------------------||
|-----------------9-(9/12\9)----7/9--------9-------------/9vvvvvvv-------||
|------------4/6-8---------------------6/8------(8\6\4)------------------||
|---------4/6------------------------------------------------------------||
|------------------------------------------------------------------------||
|------------------------------------------------------------------------||


Verse 1: (w/Riff A x2)
I sat by the ocean and drank a potion baby to erase you
Face down in the Boulevard, yet I couldn`t face you

There ain`t no use in crying. It doesn`t change anything,
So baby what good does it do?
Your friends they all said that that`s, maybe, I don`t need them too.


Pre Chorus:
I said that I`d be your one and only
Instead of a rolling one
e|-----------------------------4--4---||
B|o---------------------6--6---4--4--o||
G|---8/9\8/9--11--9-----6--6---5--5---||x2
D|----------------------6--6---6--6---||
A|o--6/7\6/7--9---7-----4--4---6--6--o||
E|-----------------------------4--4---||


Chorus:
You, me.
|-------------------------------------------------|
|--9---9--9--9--9--9--9---11--11-11-11-11-11-11---|
|--9---9--9--9--9--9--9---11--11-11-11-11-11-11---|
|--9---9--9--9--9--9--9---11--11-11-11-11-11-11---|
|--7---7--7--7--7--7--7---9---9--9--9--9--9--9----|
|-------------------------------------------------|

And a lie.
|--------------------------4---4--4--4--4--4--4---|
|--13--13-13-13-13-13-13---4---4--4--4--4--4--4---|
|--13--13-13-13-13-13-13---5---5--5--5--5--5--5---|
|--13--13-13-13-13-13-13---6---6--6--6--6--6--6---|
|--11--11-11-11-11-11-11---6---6--6--6--6--6--6---|
|--------------------------4---4--4--4--4--4--4---|

Silence is closer.
We`re passing ships in the night.
|--------------------------------------------------|--------------------||
|--6--6-6-6-6-6------------------------------------|o-9--9-9-9-9-9-9-o--||
|--6--6-6-6-6-6------------------------------------|--9--9-9-9-9-9-9----||x2
|--6--6-6-6-6-6---8--8-8-8-8-8-8--6--6-6-6-6-6-6-6-|--9--9-9-9-9-9-9----||
|--4--4-4-4-4-4-9-8--8-8-8-8-8-8--6--6-6-6-6-6-6-6-|o-7--7-7-7-7-7-7-o--||
|---------------7-6--6-6-6-6-6-6--4--4-4-4-4-4-4-4-|--------------------||

INTRO

Slide Lead 2: {(/or\) = legato}
|------------------------------------------------------------------------|
|--(7/9\7/9\7)------(7/9\7)------------------7---------------------------|
|--------------8-8---------(8\6\4)-------6/8---6vvv--8/9---(8\6\5/8vvvv)-|
|------------------------------------------------------------------------|
|------------------------------------------------------------------------|
|------------------------------------------------------------------------|

|------------------------------------------------------------------------|
|-----------------(7/9\7)------------------------------------------------|
|----(8/9\8)------------------6\4------(6/8\6)--5vvvvvvvv----------------|
|------------------------------------------------------------------------|
|------------------------------------------------------------------------|
|------------------------------------------------------------------------|

Verse 2:
There`s nowhere to run away.
Said, boy if you want love, you`ll have to go & find it with someone new.
Do you know who you really are? Are you sure it`s really you?

Lies are a funny thing.
They slip through your fingertips because they never happened to you.
Time wounds all the heals. As we fade out of view.


PRE CHORUS

Chorus 2:
Silence is closer.
We`re passing ships in the night.
|-------------------------------------------------------------------|
|o-6--6-6-6-6-6-------------------------------------9--9-9-9-9-9-9-o|
|--6--6-6-6-6-6-------------------------------------9--9-9-9-9-9-9--|x2
|--6--6-6-6-6-6---8--8-8-8-8-8-8--6--6-6-6-6-6-6-6--9--9-9-9-9-9-9--|
|o-4--4-4-4-4-4-9-8--8-8-8-8-8-8--6--6-6-6-6-6-6-6--7--7-7-7-7-7-7-o|
|---------------7-6--6-6-6-6-6-6--4--4-4-4-4-4-4-4------------------|

End to the night, left with nowhere to hide.
|------------------------------------||
|o-------------------9--9-9-9-9-9-9-o||
|--------------------9--9-9-9-9-9-9--||x2
|--6--6-6-6-6-6-6-6--9--9-9-9-9-9-9--||
|o-6--6-6-6-6-6-6-6--7--7-7-7-7-7-7-o||
|--4--4-4-4-4-4-4-4------------------||


Outro:
|---------------------------------------|
|o-------------------------------------o|
|--13-----11--9----11-11----9--8--8--8--|x4
|---------------------------------------|
|o-11-----9---7----9--9-----7--6--6--6-o|
|---------------------------------------|

Closer, and closer
We`re crashing ships in the night
|-------------------------------------------------------------------||
|--6--6-6-6-6-6-------------------------------------9--9-9-9-9-9-9--||
|--6--6-6-6-6-6-------------------------------------9--9-9-9-9-9-9--||
|--6--6-6-6-6-6---8--8-8-8-8-8-8--6--6-6-6-6-6-6-6--9--9-9-9-9-9-9--||
|--4--4-4-4-4-4-9-8--8-8-8-8-8-8--6--6-6-6-6-6-6-6--7--7-7-7-7-7-7--||
|---------------7-6--6-6-6-6-6-6--4--4-4-4-4-4-4-4------------------||
Tap to rate this tab
 
# A B C D E F G H I J K L M N O P Q R S T U V W X Y Z