Song name
# A B C D E F G H I J K L M N O P Q R S T U V W X Y Z

Queens Of The Stone Age - If I Had A Tail tab

Figured this out 100% by ear. It's my first tab so please be gentle <3

-------------------------------------------------|
---9-------------------9-12b14-12p10-------------|
---11b13--9-------9-11---------------11-9--------|
------------11-9---------------------------------|
-------------------------------------------------|
-------------------------------------------------|

------------------------------------9-------------|
---------------------------9b-9b-9b---------------|
---11b13b11b13-13b11p9----------------------------|
-----------------------11-------------------------|
--------------------------------------------------|
--------------------------------------------------|

----------------------------6-------7-------7-------------------------|
-----------------------9-9----10b12---10b12---10-9--------------------|
---9-11p9-9------9-11------------------------------11-9-11-11b-11b----|
------------11-9------------------------------------------------------|
----------------------------------------------------------------------|
----------------------------------------------------------------------|
Tap to rate this tab
# A B C D E F G H I J K L M N O P Q R S T U V W X Y Z