Song name
# A B C D E F G H I J K L M N O P Q R S T U V W X Y Z

Queens Of The Stone Age - Fairweather Friends tab

-----------------------------------------------------------------------
        Fairweather Friends - QOTSA
-----------------------------------------------------------------------
Tabbed by: joestro
E-mail: neil.r.tarr@gmail.com

Tuning:Standard

I was just checking out tabs for the new ...Like Clockwork album, but both of 
the tabs for fairweather friends were lacking the post 2nd verse/pre 2nd
Chorus solo, which is by far one of the most fun and greatest on the album. I
decided to transcribe it real quick, so here it is. Enjoy!
Note: I would say this tab is for intermediate guitarists, mostly because
it's easy enough for me to tab, but not necessarily easy to all guitarists.

And yes, it's in standard tuning.



e|---------------------------------------------------------------------------|
B|---------------------------------------------------------------------------|
G|--8---------8~~~---12---11---9--12~--11\9/11-------------------------------|
D|----11--9---------9--------------------------------------------------------|
A|---------------------------------------------------------------------------|
E|---------------------------------------------------------------------------|

e|---------------------------------------------------------------------------|
B|---------------------------------------------------------------------------|
G|--11h12p11p9h11/16\11--9--11---9p7h9p7/11-9p7h9p7/11-----------------------|
D|--------------------------------------------------------9~~~---------------|
A|---------------------------------------------------------------------------|
E|---------------------------------------------------------------------------|

e|---------------------------------------------------------------------------|
B|-----------10b12---10b12r10b12r10/15~------10---12-------------------------|
G|--8------------------------------------11----------------------------------|
D|----11--9------------------------------------------------------------------|
A|---------------------------------------------------------------------------|
E|---------------------------------------------------------------------------|

e|---------------------------------------------------------------------------|
B|--17b19r17-15-17b19--12~-12-15--17--17--19---------------------------------|
G|--------------------------------19b-19b-21b--------------------------------|
D|---------------------------------------------------------------------------|
A|---------------------------------------------------------------------------|
E|---------------------------------------------------------------------------|

And that's it! Simple as that. Use a *little* wah/fuzz for maximum effect.
Please let me know if I need to clarify anything I may have vaguely shown.
Thanks!


************************************

| /   slide up
| \   slide down
| h   hammer-on
| p   pull-off
| ~   vibrato
| +   harmonic
| x   Mute note
| b   Bend
| pb  Pre-bend
| br  Bend release
| pbr Pre-bend release
| brb Bend release bend

************************************
Tap to rate this tab
 
# A B C D E F G H I J K L M N O P Q R S T U V W X Y Z