Song name
# A B C D E F G H I J K L M N O P Q R S T U V W X Y Z

Queens Of The Stone Age - Go With The Flow tab

Queens of the Stone Age
Songs for the Deaf
Go With the Flow

Standard Tuning

Rhythm Verse
e|-----------------------------------------------------------------|
B|-----------------------------------------------------------------|
G|-----------------------------------------------------------------|
D|----------------------------------5-5-5-5-5-5-5-5----------------|
A|--2-2-2-2-2-2-2-2-2-2-2-2-2-2-2-2-3-3-3-3-3-3-3-3-7-7-7-7-7-7-7-7|
E|--0-0-0-0-0-0-0-0-0-0-0-0-0-0-0-0-----------------5-5-5-5-5-5-5-5|

Rhythm Chorus
e|-----------------------------------------------------------------|
B|-----------------------------------------------------------------|
G|-----------------------------------------------------------------|
D|----------------------------------5-5-5-5-5-5-5-5-7-7-7-7-7-7-7-7|
A|--2-2-2-2-2-2-2-2-2-2-2-2-2-2-2-2-3-3-3-3-3-3-3-3-5-5-5-5-5-5-5-5|
E|--0-0-0-0-0-0-0-0-0-0-0-0-0-0-0-0--------------------------------|


Lead Intro
e|--12/15\12\7-7-8-10-8-7--12/14-14-12-17b-17b--|
B|----------------------------------------------|
G|----------------------------------------------|
D|----------------------------------------------|
A|----------------------------------------------|
E|----------------------------------------------|

Lead Verse 1
e|--7-8-10-8-7-------15-------------------------|
B|----------------------12-17-------------------|
G|--------------------------------17-14-16------|
D|----------------------------------------------|
A|----------------------------------------------|
E|----------------------------------------------|

Lead Chorus 1
e|--12--------12-------12--------12-------------|
B|-----15-12----15-12-----15-12-----15-12-------|
G|----------------------------------------------|
D|----------------------------------------------|
A|----------------------------------------------|
E|----------------------------------------------|

Lead Verse 2
e|------------------------15----12-------------------------|
B|---------------------------12----15----------------------|
G|--9/16\9/16\13-12-11-----------------14------------------|
D|---------------------14-------------14--12---------------|
A|-------------------------------------------14-12---------|
E|-------------------------------------------------15-9-12-|

Lead Chorus 2
e|--15-----12--------12-------12--------12------|
B|-----19----15-12----15-12-----15-12-----15-12-|
G|----------------------------------------------|
D|----------------------------------------------|
A|----------------------------------------------|
E|----------------------------------------------|

Lead Outro
e|--15----12--15----12--15-17-16-15-17-16-15-17-16-15-17-17b--|
B|-----12--------12-------------------------------------------|
G|------------------------------------------------------------|
D|------------------------------------------------------------|
A|------------------------------------------------------------|
E|------------------------------------------------------------|
Tap to rate this tab
# A B C D E F G H I J K L M N O P Q R S T U V W X Y Z