Song name
# A B C D E F G H I J K L M N O P Q R S T U V W X Y Z

Queens Of The Stone Age - Like Clockwork tab

-------------------------------------------------------------------------------
                             Like Clockwork - Queens of the Stone age
                                        …Like Clockwork
-------------------------------------------------------------------------------
Tabbed by: Mrjohnfisherman (first submitted tab on UG)

Tuning: Standard

e|---------------------------------------------------------------------------|
B|----------------------------13---11b13-------------------------------------|
G|-12------------------10-12--------------12b14--10--------------------------|
D|----10--13-10--10-13-------------------------------------------------------|
A|---------------------------------------------------------------------------|
E|---------------------------------------------------------------------------|

e|----------------------------------------------10h11p10---------------------|
B|----------------------------13p11h13--11--13------------10--13-------------|
G|-12------------------10-12-------------------------------------------------|
D|----10--13-10--10-13-------------------------------------------------------|
A|---------------------------------------------------------------------------|
E|---------------------------------------------------------------------------|

e|---------------------------------------------------------------------------|
B|----13---------------------------------------------------------------------|
G|-12-----12-----12-10----12--10--10-10--10-10--9----9h10--9-----------------|
D|-----------13--------13-------------------------10---------10--8/10--------|
A|---------------------------------------------------------------------------|
E|---------------------------------------------------------------------------|

e|-----------------11--11-11--11-11------------------------------------------|
B|----------------------------------13----11b13------------------------------|
G|--------------12---------------------12------------------------------------|
D|-10/12--12h13--------------------------------------------------------------|
A|---------------------------------------------------------------------------|
E|---------------------------------------------------------------------------|

e|---------------------------------------------------------------------------|
B|-11-11-11-11-10----10h11p10-----11-11-11-11-10----10\8---------------------|
G|----------------12----------12-----------------12--------------------------|
D|---------------------------------------------------------------------------|
A|---------------------------------------------------------------------------|
E|---------------------------------------------------------------------------|
   ^^^(this section may be played as chords but I can't tell)^^^
e|--------------------------------11-11-11-11--------------------------------|
B|-11-11-11-11-10----10h11p10-----------------13----13-----------------------|
G|----------------12----------12----------------12---------------------------|
D|---------------------------------------------------------------------------|
A|---------------------------------------------------------------------------|
E|---------------------------------------------------------------------------|
                              ^^^(there might be a note missing here)
e|-13-11-----13-11-----13-11-------------13-11-----13-11---------------------|
B|-------13--------13--------13-11b13----------13--------13-11b13------------|
G|---------------------------------------------------------------------------|
D|---------------------------------------------------------------------------|
A|---------------------------------------------------------------------------|
E|---------------------------------------------------------------------------|

e|-13-11-----13-11------15-11-----13-11-----13-11----------------------------|
B|-------13--------13---------11--------13--------11b13----------------------|
G|---------------------------------------------------------------------------|
D|---------------------------------------------------------------------------|
A|---------------------------------------------------------------------------|
E|---------------------------------------------------------------------------|

Notes:
Some, if not all, of the bends can be played as a slide, it just depends on how you want 
to play it.

************************************

| /   slide up
| \   slide down
| h   hammer-on
| p   pull-off
| ~   vibrato
| +   harmonic
| x   Mute note
| b   Bend
| pb  Pre-bend
| br  Bend release
| pbr Pre-bend release
| brb Bend release bend

************************************
Tap to rate this tab
# A B C D E F G H I J K L M N O P Q R S T U V W X Y Z