Song name
# A B C D E F G H I J K L M N O P Q R S T U V W X Y Z

Queens Of The Stone Age - Keep Your Eyes Peeled tab

Intro:

c |---------------------------------------------|
G |---------------------------------------------|
D#|---------------------------------------------|
A#|----------------------------2h3-1------------|
F |-2-------------2-----------------------------|
C |-0-------------0-----------------------------|

c |---------------------------------------------|
G |---------------------------------------------|
D#|---------------------------------------------|
A#|----------------------------2-3-1------------|
F |-2-2--2-2-2--2-2-----1-2---------------------|
C |-0-0--0-0-0--0-0--0-------3------------------| (2x)


Verse #1:

Don't look, just keep your eyes peeled
Thoughtless, trapped in my minefield
Shotgun, never behind the wheel, anymore
Danger, monsters of smoke and mirror
Slowly, can one so lost be found?

c |---------------------------------------------|
G |---------------------------------------------|
D#|---------------------------------------------|
A#|----------------------------2-3-1------------|
F |-2-2--2-2-2--2-2-----1-2---------------------|
C |-0-0--0-0-0--0-0--0-------3------------------| (3x)

c |---------------------------------------------|
G |---------------------------------------------|
D#|---------------------------------------------|
A#|--------------------4b-b4----4b-4b-----------|
F |-2-2--2-2-2--2-2-----------------------------|
C |-0-0--0-0-0--0-0--0-------0------------------|

c |---------------------------------------------|
G |---------------------------------------------|
D#|---------------------------------------------|
A#|----------------------------2-3-1------------|
F |-2-2--2-2-2--2-2-----1-2---------------------|
C |-0-0--0-0-0--0-0--0-------3------------------| (2x)


Chorus:

And I know, you will never believe
I play as though I'm alright
If life is but a dream, then
Wake me up

c |---------------------------------|  |---------------------|
G |---------------------------------|  |---------------------|
D#|-------14-14-14-------12-12-12---|  |---------------------|
A#|---------------------------------|  |---------------------|
F |-------12-12-12-------10-10-10---|  |--2-2--2-2-2----2----|
C |---------------------------------|  |--0-0--0-0-0----0----| (4x)
         [------   wah   ------------------------------------|

Bridge #1:

c |---------------------------------------------|
G |---------------------------------------------|
D#|---------------------------------------------|
A#|----------------------------2-3-1------------|
F |-2-2--2-2-2--2-2-----1-2---------------------|
C |-0-0--0-0-0--0-0--0-------3------------------|

Interlude:

Fallen leaves realize they, are no friend of autumn
The view from hell is blue sky
So ominously blue
Daydream until all the blue is gone

c |---------------------------------------------|
G |---------------------------------------------|
D#|---------------------------------------------|
A#|----------------------------2-3-1------------|
F |-2-2--2-2-2--2-2-----1-2---------------------|
C |-0-0--0-0-0--0-0--0-------3------------------| (2x)

c |-----9--9----9--9--------9--9---9--------10-----------|
G |------------------------------------------------------|
D#|------------------------------------------------------|
A#|------------------------------------------------------|
F |---7--7---7--7-------0--0----0----0---10----10--------|
C |------------------------------------------------------|

c |-----9--9----9--9--------9--9---9------10-------------|
G |------------------------------------------------------|
D#|------------------------------------------------------|
A#|------------------------------------------------------|
F |---9--9----9--9-------0--0----0--0--10----10----------|
C |------------------------------------------------------|

c |------------------------------------------------------|
G |------------------------------------------------------|
D#|-----10--9--12--14--9--10-9--10-9---------------------|
A#|------------------------------------------------------|
F |------8--7--10--12--7--8--7--8--7---------------------|
C |------------------------------------------------------|

Chorus:

And I know, you will never believe
I play as though I'm alright
If life is but a dream, then
Wake me up

c |---------------------------------|  |---------------------|
G |---------------------------------|  |---------------------|
D#|-------14-14-14-------12-12-12---|  |---------------------|
A#|---------------------------------|  |---------------------|
F |-------12-12-12-------10-10-10---|  |--2-2--2-2-2----2----|
C |---------------------------------|  |--0-0--0-0-0----0----| (4x)
         [------   wah   ------------------------------------|

Interlude #2:

Underwater is another life
Disregarding every myth we write
Rag doll churning
Eagerly alive

[This part it's so "messy", imagine 3 guitars doing different licks at same time. Sorry, 
had to skip.]

Verse #3:

Big smile, really a show of teeth
Without a care in a world of fear
Lonely, you don't know how I feel
Praise God, nothing is as it seems

c |---------------------------------------------|
G |---------------------------------------------|
D#|---------------------------------------------|
A#|----------------------------2-3-1------------|
F |-2-2--2-2-2--2-2-----1-2---------------------|
C |-0-0--0-0-0--0-0--0-------3------------------| (2x)
Tap to rate this tab
# A B C D E F G H I J K L M N O P Q R S T U V W X Y Z